  0
SECTION
  2
HEADER
  9
$ACADVER
  1
AC1021
  9
$ACADMAINTVER
 70
     1
  9
$DWGCODEPAGE
  3
ANSI_936
  9
$LASTSAVEDBY
  1
Andy
  9
$INSBASE
 10
0.0
 20
0.0
 30
0.0
  9
$EXTMIN
 10
129.2105435772587
 20
17.24291819909558
 30
0.0
  9
$EXTMAX
 10
399.2105435772586
 20
489.2429181990955
 30
0.0
  9
$LIMMIN
 10
0.0
 20
0.0
  9
$LIMMAX
 10
12.0
 20
9.0
  9
$ORTHOMODE
 70
     1
  9
$REGENMODE
 70
     1
  9
$FILLMODE
 70
     1
  9
$QTEXTMODE
 70
     0
  9
$MIRRTEXT
 70
     1
  9
$LTSCALE
 40
1.0
  9
$ATTMODE
 70
     1
  9
$TEXTSIZE
 40
0.2
  9
$TRACEWID
 40
0.05
  9
$TEXTSTYLE
  7
Standard
  9
$CLAYER
  8
0
  9
$CELTYPE
  6
ByLayer
  9
$CECOLOR
 62
   256
  9
$CELTSCALE
 40
1.0
  9
$DISPSILH
 70
     0
  9
$DIMSCALE
 40
1.0
  9
$DIMASZ
 40
0.18
  9
$DIMEXO
 40
0.0625
  9
$DIMDLI
 40
0.38
  9
$DIMRND
 40
0.0
  9
$DIMDLE
 40
0.0
  9
$DIMEXE
 40
0.18
  9
$DIMTP
 40
0.0
  9
$DIMTM
 40
0.0
  9
$DIMTXT
 40
12.0
  9
$DIMCEN
 40
0.09
  9
$DIMTSZ
 40
0.0
  9
$DIMTOL
 70
     0
  9
$DIMLIM
 70
     0
  9
$DIMTIH
 70
     1
  9
$DIMTOH
 70
     1
  9
$DIMSE1
 70
     0
  9
$DIMSE2
 70
     0
  9
$DIMTAD
 70
     0
  9
$DIMZIN
 70
     0
  9
$DIMBLK
  1

  9
$DIMASO
 70
     1
  9
$DIMSHO
 70
     1
  9
$DIMPOST
  1

  9
$DIMAPOST
  1

  9
$DIMALT
 70
     0
  9
$DIMALTD
 70
     2
  9
$DIMALTF
 40
25.4
  9
$DIMLFAC
 40
1.0
  9
$DIMTOFL
 70
     0
  9
$DIMTVP
 40
0.0
  9
$DIMTIX
 70
     0
  9
$DIMSOXD
 70
     0
  9
$DIMSAH
 70
     0
  9
$DIMBLK1
  1

  9
$DIMBLK2
  1

  9
$DIMSTYLE
  2
Standard
  9
$DIMCLRD
 70
     0
  9
$DIMCLRE
 70
     0
  9
$DIMCLRT
 70
     0
  9
$DIMTFAC
 40
1.0
  9
$DIMGAP
 40
0.09
  9
$DIMJUST
 70
     0
  9
$DIMSD1
 70
     0
  9
$DIMSD2
 70
     0
  9
$DIMTOLJ
 70
     1
  9
$DIMTZIN
 70
     0
  9
$DIMALTZ
 70
     0
  9
$DIMALTTZ
 70
     0
  9
$DIMUPT
 70
     0
  9
$DIMDEC
 70
     1
  9
$DIMTDEC
 70
     1
  9
$DIMALTU
 70
     2
  9
$DIMALTTD
 70
     2
  9
$DIMTXSTY
  7
Standard
  9
$DIMAUNIT
 70
     0
  9
$DIMADEC
 70
     0
  9
$DIMALTRND
 40
0.0
  9
$DIMAZIN
 70
     0
  9
$DIMDSEP
 70
    46
  9
$DIMATFIT
 70
     3
  9
$DIMFRAC
 70
     0
  9
$DIMLDRBLK
  1

  9
$DIMLUNIT
 70
     2
  9
$DIMLWD
 70
    -2
  9
$DIMLWE
 70
    -2
  9
$DIMTMOVE
 70
     0
  9
$DIMFXL
 40
1.0
  9
$DIMFXLON
 70
     0
  9
$DIMJOGANG
 40
0.7853981633974483
  9
$DIMTFILL
 70
     0
  9
$DIMTFILLCLR
 70
     0
  9
$DIMARCSYM
 70
     0
  9
$DIMLTYPE
  6

  9
$DIMLTEX1
  6

  9
$DIMLTEX2
  6

  9
$LUNITS
 70
     2
  9
$LUPREC
 70
     4
  9
$SKETCHINC
 40
0.1
  9
$FILLETRAD
 40
5.0
  9
$AUNITS
 70
     0
  9
$AUPREC
 70
     0
  9
$MENU
  1
.
  9
$ELEVATION
 40
0.0
  9
$PELEVATION
 40
0.0
  9
$THICKNESS
 40
0.0
  9
$LIMCHECK
 70
     0
  9
$CHAMFERA
 40
0.5
  9
$CHAMFERB
 40
0.5
  9
$CHAMFERC
 40
1.0
  9
$CHAMFERD
 40
0.0
  9
$SKPOLY
 70
     0
  9
$TDCREATE
 40
2457618.728489190
  9
$TDUCREATE
 40
2457618.395155857
  9
$TDUPDATE
 40
2457675.440070336
  9
$TDUUPDATE
 40
2457675.106737002
  9
$TDINDWG
 40
0.0656321296
  9
$TDUSRTIMER
 40
0.0656272222
  9
$USRTIMER
 70
     1
  9
$ANGBASE
 50
0.0
  9
$ANGDIR
 70
     0
  9
$PDMODE
 70
     0
  9
$PDSIZE
 40
0.0
  9
$PLINEWID
 40
0.0
  9
$SPLFRAME
 70
     0
  9
$SPLINETYPE
 70
     6
  9
$SPLINESEGS
 70
     8
  9
$HANDSEED
  5
5B7
  9
$SURFTAB1
 70
     6
  9
$SURFTAB2
 70
     6
  9
$SURFTYPE
 70
     6
  9
$SURFU
 70
     6
  9
$SURFV
 70
     6
  9
$UCSBASE
  2

  9
$UCSNAME
  2

  9
$UCSORG
 10
0.0
 20
0.0
 30
0.0
  9
$UCSXDIR
 10
1.0
 20
0.0
 30
0.0
  9
$UCSYDIR
 10
0.0
 20
1.0
 30
0.0
  9
$UCSORTHOREF
  2

  9
$UCSORTHOVIEW
 70
     0
  9
$UCSORGTOP
 10
0.0
 20
0.0
 30
0.0
  9
$UCSORGBOTTOM
 10
0.0
 20
0.0
 30
0.0
  9
$UCSORGLEFT
 10
0.0
 20
0.0
 30
0.0
  9
$UCSORGRIGHT
 10
0.0
 20
0.0
 30
0.0
  9
$UCSORGFRONT
 10
0.0
 20
0.0
 30
0.0
  9
$UCSORGBACK
 10
0.0
 20
0.0
 30
0.0
  9
$PUCSBASE
  2

  9
$PUCSNAME
  2

  9
$PUCSORG
 10
0.0
 20
0.0
 30
0.0
  9
$PUCSXDIR
 10
1.0
 20
0.0
 30
0.0
  9
$PUCSYDIR
 10
0.0
 20
1.0
 30
0.0
  9
$PUCSORTHOREF
  2

  9
$PUCSORTHOVIEW
 70
     0
  9
$PUCSORGTOP
 10
0.0
 20
0.0
 30
0.0
  9
$PUCSORGBOTTOM
 10
0.0
 20
0.0
 30
0.0
  9
$PUCSORGLEFT
 10
0.0
 20
0.0
 30
0.0
  9
$PUCSORGRIGHT
 10
0.0
 20
0.0
 30
0.0
  9
$PUCSORGFRONT
 10
0.0
 20
0.0
 30
0.0
  9
$PUCSORGBACK
 10
0.0
 20
0.0
 30
0.0
  9
$USERI1
 70
     0
  9
$USERI2
 70
     0
  9
$USERI3
 70
     0
  9
$USERI4
 70
     0
  9
$USERI5
 70
     0
  9
$USERR1
 40
0.0
  9
$USERR2
 40
0.0
  9
$USERR3
 40
0.0
  9
$USERR4
 40
0.0
  9
$USERR5
 40
0.0
  9
$WORLDVIEW
 70
     1
  9
$SHADEDGE
 70
     3
  9
$SHADEDIF
 70
    70
  9
$TILEMODE
 70
     1
  9
$MAXACTVP
 70
    64
  9
$PINSBASE
 10
0.0
 20
0.0
 30
0.0
  9
$PLIMCHECK
 70
     0
  9
$PEXTMIN
 10
1.000000000000000E+20
 20
1.000000000000000E+20
 30
1.000000000000000E+20
  9
$PEXTMAX
 10
-1.000000000000000E+20
 20
-1.000000000000000E+20
 30
-1.000000000000000E+20
  9
$PLIMMIN
 10
0.0
 20
0.0
  9
$PLIMMAX
 10
12.0
 20
9.0
  9
$UNITMODE
 70
     0
  9
$VISRETAIN
 70
     1
  9
$PLINEGEN
 70
     0
  9
$PSLTSCALE
 70
     1
  9
$TREEDEPTH
 70
  3020
  9
$CMLSTYLE
  2
Standard
  9
$CMLJUST
 70
     0
  9
$CMLSCALE
 40
1.0
  9
$PROXYGRAPHICS
 70
     1
  9
$MEASUREMENT
 70
     0
  9
$CELWEIGHT
370
    -1
  9
$ENDCAPS
280
     0
  9
$JOINSTYLE
280
     0
  9
$LWDISPLAY
290
     1
  9
$INSUNITS
 70
     1
  9
$HYPERLINKBASE
  1

  9
$STYLESHEET
  1

  9
$XEDIT
290
     1
  9
$CEPSNTYPE
380
     0
  9
$PSTYLEMODE
290
     1
  9
$FINGERPRINTGUID
  2
{5C0E68E2-DAED-48B0-B234-CF1DC93EF52F}
  9
$VERSIONGUID
  2
{7AAE7CA5-B7CA-45A1-BF23-CF3984C503F6}
  9
$EXTNAMES
290
     1
  9
$PSVPSCALE
 40
0.0
  9
$OLESTARTUP
290
     0
  9
$SORTENTS
280
   127
  9
$INDEXCTL
280
     0
  9
$HIDETEXT
280
     1
  9
$XCLIPFRAME
290
     0
  9
$HALOGAP
280
     0
  9
$OBSCOLOR
 70
   257
  9
$OBSLTYPE
280
     0
  9
$INTERSECTIONDISPLAY
280
     0
  9
$INTERSECTIONCOLOR
 70
   257
  9
$DIMASSOC
280
     2
  9
$PROJECTNAME
  1

  9
$CAMERADISPLAY
290
     0
  9
$LENSLENGTH
 40
50.0
  9
$CAMERAHEIGHT
 40
0.0
  9
$STEPSPERSEC
 40
2.0
  9
$STEPSIZE
 40
6.0
  9
$3DDWFPREC
 40
2.0
  9
$PSOLWIDTH
 40
0.25
  9
$PSOLHEIGHT
 40
4.0
  9
$LOFTANG1
 40
1.570796326794897
  9
$LOFTANG2
 40
1.570796326794897
  9
$LOFTMAG1
 40
0.0
  9
$LOFTMAG2
 40
0.0
  9
$LOFTPARAM
 70
     7
  9
$LOFTNORMALS
280
     1
  9
$LATITUDE
 40
37.795
  9
$LONGITUDE
 40
-122.394
  9
$NORTHDIRECTION
 40
0.0
  9
$TIMEZONE
 70
 -8000
  9
$LIGHTGLYPHDISPLAY
280
     1
  9
$TILEMODELIGHTSYNCH
280
     1
  9
$CMATERIAL
347
3C
  9
$SOLIDHIST
280
     1
  9
$SHOWHIST
280
     1
  9
$DWFFRAME
280
     2
  9
$DGNFRAME
280
     2
  9
$REALWORLDSCALE
290
     1
  9
$INTERFERECOLOR
 62
   256
  9
$INTERFEREOBJVS
345
33
  9
$INTERFEREVPVS
346
30
  9
$CSHADOW
280
     0
  9
$SHADOWPLANELOCATION
 40
0.0
  0
ENDSEC
  0
SECTION
  2
CLASSES
  0
CLASS
  1
ACDBDICTIONARYWDFLT
  2
AcDbDictionaryWithDefault
  3
ObjectDBX Classes
 90
        0
 91
        1
280
     0
281
     0
  0
CLASS
  1
VISUALSTYLE
  2
AcDbVisualStyle
  3
ObjectDBX Classes
 90
     4095
 91
       16
280
     0
281
     0
  0
CLASS
  1
MATERIAL
  2
AcDbMaterial
  3
ObjectDBX Classes
 90
     1024
 91
        3
280
     0
281
     0
  0
CLASS
  1
SUN
  2
AcDbSun
  3
SCENEOE
 90
     1024
 91
        1
280
     0
281
     0
  0
CLASS
  1
TABLESTYLE
  2
AcDbTableStyle
  3
ObjectDBX Classes
 90
     4095
 91
        1
280
     0
281
     0
  0
CLASS
  1
SORTENTSTABLE
  2
AcDbSortentsTable
  3
ObjectDBX Classes
 90
        0
 91
        1
280
     0
281
     0
  0
CLASS
  1
DIMASSOC
  2
AcDbDimAssoc
  3
"AcDbDimAssoc|Product Desc:     AcDim ARX App For Dimension|Company:          Autodesk, Inc.|WEB Address:      www.autodesk.com"
 90
        0
 91
        4
280
     0
281
     0
  0
CLASS
  1
DICTIONARYVAR
  2
AcDbDictionaryVar
  3
ObjectDBX Classes
 90
        0
 91
        1
280
     0
281
     0
  0
ENDSEC
  0
SECTION
  2
TABLES
  0
TABLE
  2
VPORT
  5
8
330
0
100
AcDbSymbolTable
 70
     1
  0
VPORT
  5
29
330
8
100
AcDbSymbolTableRecord
100
AcDbViewportTableRecord
  2
*Active
 70
     0
 10
0.0
 20
0.0
 11
1.0
 21
1.0
 12
69.86392982696543
 22
183.1341563676861
 13
0.0
 23
0.0
 14
0.5
 24
0.5
 15
0.5
 25
0.5
 16
0.0
 26
0.0
 36
1.0
 17
104.9999647089931
 27
148.4999796178229
 37
0.0
 40
163.9752704639378
 41
2.225806451612903
 42
50.0
 43
0.0
 44
0.0
 50
0.0
 51
0.0
 71
     0
 72
   100
 73
     1
 74
     3
 75
     0
 76
     0
 77
     0
 78
     0
281
     0
 65
     1
110
0.0
120
0.0
130
0.0
111
1.0
121
0.0
131
0.0
112
0.0
122
1.0
132
0.0
 79
     0
146
0.0
348
2F
 60
     3
 61
     5
292
     1
282
     1
141
0.0
142
0.0
 63
   250
361
3F
  0
ENDTAB
  0
TABLE
  2
LTYPE
  5
5
330
0
100
AcDbSymbolTable
 70
     4
  0
LTYPE
  5
14
330
5
100
AcDbSymbolTableRecord
100
AcDbLinetypeTableRecord
  2
ByBlock
 70
     0
  3

 72
    65
 73
     0
 40
0.0
  0
LTYPE
  5
15
330
5
100
AcDbSymbolTableRecord
100
AcDbLinetypeTableRecord
  2
ByLayer
 70
     0
  3

 72
    65
 73
     0
 40
0.0
  0
LTYPE
  5
16
330
5
100
AcDbSymbolTableRecord
100
AcDbLinetypeTableRecord
  2
Continuous
 70
     0
  3
Solid line
 72
    65
 73
     0
 40
0.0
  0
LTYPE
  5
4C
330
5
100
AcDbSymbolTableRecord
100
AcDbLinetypeTableRecord
  2
AI-Linetype-1
 70
     0
  3
Adobe Illustrator Linetype No. 1
 72
    65
 73
     2
 40
1.400033900785118
 49
0.7000169503925592
 74
     0
 49
-0.7000169503925592
 74
     0
  0
LTYPE
  5
51
330
5
100
AcDbSymbolTableRecord
100
AcDbLinetypeTableRecord
  2
AI-Linetype-2
 70
     0
  3
Adobe Illustrator Linetype No. 2
 72
    65
 73
     2
 40
1.400033900785118
 49
0.7000169503925592
 74
     0
 49
-0.7000169503925592
 74
     0
  0
LTYPE
  5
56
330
5
100
AcDbSymbolTableRecord
100
AcDbLinetypeTableRecord
  2
AI-Linetype-3
 70
     0
  3
Adobe Illustrator Linetype No. 3
 72
    65
 73
     2
 40
1.400033900785118
 49
0.7000169503925592
 74
     0
 49
-0.7000169503925592
 74
     0
  0
ENDTAB
  0
TABLE
  2
LAYER
  5
2
330
0
100
AcDbSymbolTable
 70
     3
  0
LAYER
  5
10
330
2
100
AcDbSymbolTableRecord
100
AcDbLayerTableRecord
  2
0
 70
     0
 62
     7
  6
Continuous
370
    -3
390
F
347
3E
  0
LAYER
  5
40
330
2
100
AcDbSymbolTableRecord
100
AcDbLayerTableRecord
  2
_U+56FE_U+5C42 1
 70
     0
 62
     7
  6
Continuous
370
    -3
390
F
347
3E
  0
LAYER
  5
1EB
330
2
100
AcDbSymbolTableRecord
100
AcDbLayerTableRecord
  2
Defpoints
 70
     0
 62
     7
  6
Continuous
290
     0
370
    -3
390
F
347
3E
  0
ENDTAB
  0
TABLE
  2
STYLE
  5
3
330
0
100
AcDbSymbolTable
 70
     1
  0
STYLE
  5
11
330
3
100
AcDbSymbolTableRecord
100
AcDbTextStyleTableRecord
  2
Standard
 70
     0
 40
0.0
 41
1.0
 50
0.0
 71
     0
 42
0.2
  3
txt
  4

  0
ENDTAB
  0
TABLE
  2
VIEW
  5
6
330
0
100
AcDbSymbolTable
 70
     0
  0
ENDTAB
  0
TABLE
  2
UCS
  5
7
330
0
100
AcDbSymbolTable
 70
     0
  0
ENDTAB
  0
TABLE
  2
APPID
  5
9
330
0
100
AcDbSymbolTable
 70
     2
  0
APPID
  5
12
330
9
100
AcDbSymbolTableRecord
100
AcDbRegAppTableRecord
  2
ACAD
 70
     0
  0
APPID
  5
46B
330
9
100
AcDbSymbolTableRecord
100
AcDbRegAppTableRecord
  2
ACAD_EXEMPT_FROM_CAD_STANDARDS
 70
     0
  0
ENDTAB
  0
TABLE
  2
DIMSTYLE
  5
A
330
0
100
AcDbSymbolTable
 70
     1
100
AcDbDimStyleTable
 71
     1
340
27
  0
DIMSTYLE
105
27
330
A
100
AcDbSymbolTableRecord
100
AcDbDimStyleTableRecord
  2
Standard
 70
     0
140
12.0
271
     1
272
     1
340
11
  0
ENDTAB
  0
TABLE
  2
BLOCK_RECORD
  5
1
330
0
100
AcDbSymbolTable
 70
     9
  0
BLOCK_RECORD
  5
1F
102
{ACAD_XDICTIONARY
360
468
102
}
330
1
100
AcDbSymbolTableRecord
100
AcDbBlockTableRecord
  2
*Model_Space
340
22
 70
     0
280
     1
281
     0
  0
BLOCK_RECORD
  5
1B
330
1
100
AcDbSymbolTableRecord
100
AcDbBlockTableRecord
  2
*Paper_Space
340
1E
 70
     0
280
     1
281
     0
  0
BLOCK_RECORD
  5
23
330
1
100
AcDbSymbolTableRecord
100
AcDbBlockTableRecord
  2
*Paper_Space0
340
26
 70
     0
280
     1
281
     0
  0
BLOCK_RECORD
  5
1EC
330
1
100
AcDbSymbolTableRecord
100
AcDbBlockTableRecord
  2
*D1
340
0
 70
     0
280
     1
281
     0
  0
BLOCK_RECORD
  5
24C
330
1
100
AcDbSymbolTableRecord
100
AcDbBlockTableRecord
  2
*D2
340
0
 70
     0
280
     1
281
     0
  0
BLOCK_RECORD
  5
3D9
330
1
100
AcDbSymbolTableRecord
100
AcDbBlockTableRecord
  2
*D3
340
0
 70
     0
280
     1
281
     0
  0
BLOCK_RECORD
  5
42E
330
1
100
AcDbSymbolTableRecord
100
AcDbBlockTableRecord
  2
*D4
340
0
 70
     0
280
     1
281
     0
  0
BLOCK_RECORD
  5
550
330
1
100
AcDbSymbolTableRecord
100
AcDbBlockTableRecord
  2
*D5
340
0
 70
     0
280
     1
281
     0
  0
BLOCK_RECORD
  5
56A
330
1
100
AcDbSymbolTableRecord
100
AcDbBlockTableRecord
  2
*D6
340
0
 70
     0
280
     1
281
     0
  0
BLOCK_RECORD
  5
584
330
1
100
AcDbSymbolTableRecord
100
AcDbBlockTableRecord
  2
*D7
340
0
 70
     0
280
     1
281
     0
  0
BLOCK_RECORD
  5
59E
330
1
100
AcDbSymbolTableRecord
100
AcDbBlockTableRecord
  2
*D8
340
0
 70
     0
280
     1
281
     0
  0
ENDTAB
  0
ENDSEC
  0
SECTION
  2
BLOCKS
  0
BLOCK
  5
20
330
1F
100
AcDbEntity
  8
0
100
AcDbBlockBegin
  2
*Model_Space
 70
     0
 10
0.0
 20
0.0
 30
0.0
  3
*Model_Space
  1

  0
ENDBLK
  5
21
330
1F
100
AcDbEntity
  8
0
100
AcDbBlockEnd
  0
BLOCK
  5
1C
330
1B
100
AcDbEntity
 67
     1
  8
0
100
AcDbBlockBegin
  2
*Paper_Space
 70
     0
 10
0.0
 20
0.0
 30
0.0
  3
*Paper_Space
  1

  0
ENDBLK
  5
1D
330
1B
100
AcDbEntity
 67
     1
  8
0
100
AcDbBlockEnd
  0
BLOCK
  5
24
330
23
100
AcDbEntity
 67
     1
  8
0
100
AcDbBlockBegin
  2
*Paper_Space0
 70
     0
 10
0.0
 20
0.0
 30
0.0
  3
*Paper_Space0
  1

  0
ENDBLK
  5
25
330
23
100
AcDbEntity
 67
     1
  8
0
100
AcDbBlockEnd
  0
BLOCK
  5
1F7
330
1EC
100
AcDbEntity
  8
0
100
AcDbBlockBegin
  2
*D1
 70
     1
 10
0.0
 20
0.0
 30
0.0
  3
*D1
  1

  0
LINE
  5
241
330
1EC
100
AcDbEntity
  8
0
 62
     0
370
    -2
100
AcDbLine
 10
97.17457027125215
 20
184.3973345899686
 30
0.0
 11
97.17457027125215
 21
184.5148345899686
 31
0.0
  0
LINE
  5
242
330
1EC
100
AcDbEntity
  8
0
 62
     0
370
    -2
100
AcDbLine
 10
187.1769860341771
 20
184.3973345899686
 30
0.0
 11
187.1769860341771
 21
184.5148345899686
 31
0.0
  0
LINE
  5
243
330
1EC
100
AcDbEntity
  8
0
 62
     0
370
    -2
100
AcDbLine
 10
97.35457027125216
 20
184.3348345899686
 30
0.0
 11
126.0857781527147
 21
184.3348345899686
 31
0.0
  0
LINE
  5
244
330
1EC
100
AcDbEntity
  8
0
 62
     0
370
    -2
100
AcDbLine
 10
186.9969860341772
 20
184.3348345899686
 30
0.0
 11
158.2657781527147
 21
184.3348345899686
 31
0.0
  0
SOLID
  5
245
330
1EC
100
AcDbEntity
  8
0
 62
     0
100
AcDbTrace
 10
97.35457027125216
 20
184.3648345899686
 30
0.0
 11
97.35457027125216
 21
184.3048345899686
 31
0.0
 12
97.17457027125215
 22
184.3348345899686
 32
0.0
 13
97.17457027125215
 23
184.3348345899686
 33
0.0
  0
SOLID
  5
246
330
1EC
100
AcDbEntity
  8
0
 62
     0
100
AcDbTrace
 10
186.9969860341772
 20
184.3648345899686
 30
0.0
 11
186.9969860341772
 21
184.3048345899686
 31
0.0
 12
187.1769860341771
 22
184.3348345899686
 32
0.0
 13
187.1769860341771
 23
184.3348345899686
 33
0.0
  0
MTEXT
  5
247
330
1EC
100
AcDbEntity
  8
0
 62
     0
100
AcDbMText
 10
142.1757781527147
 20
184.3348345899686
 30
0.0
 40
12.0
 41
0.0
 46
0.0
 71
     5
 72
     1
  1
\A1;90.0
 73
     1
 44
1.0
  0
POINT
  5
248
330
1EC
100
AcDbEntity
  8
Defpoints
 62
     0
100
AcDbPoint
 10
97.17457027125215
 20
184.3348345899686
 30
0.0
  0
POINT
  5
249
330
1EC
100
AcDbEntity
  8
Defpoints
 62
     0
100
AcDbPoint
 10
187.1769860341771
 20
184.3348345899686
 30
0.0
  0
POINT
  5
24A
330
1EC
100
AcDbEntity
  8
Defpoints
 62
     0
100
AcDbPoint
 10
187.1769860341771
 20
184.3348345899686
 30
0.0
  0
ENDBLK
  5
1F8
330
1EC
100
AcDbEntity
  8
0
100
AcDbBlockEnd
  0
BLOCK
  5
257
330
24C
100
AcDbEntity
  8
0
100
AcDbBlockBegin
  2
*D2
 70
     1
 10
0.0
 20
0.0
 30
0.0
  3
*D2
  1

  0
LINE
  5
25A
330
24C
100
AcDbEntity
  8
0
 62
     0
370
    -2
100
AcDbLine
 10
121.5515021294434
 20
329.4191986124189
 30
0.0
 11
121.5515021294434
 21
304.1666673798277
 31
0.0
  0
LINE
  5
25B
330
24C
100
AcDbEntity
  8
0
 62
     0
370
    -2
100
AcDbLine
 10
162.8018427722333
 20
329.4191986124189
 30
0.0
 11
162.8018427722333
 21
304.1666673798277
 31
0.0
  0
LINE
  5
25C
330
24C
100
AcDbEntity
  8
0
 62
     0
370
    -2
100
AcDbLine
 10
121.7315021294434
 20
304.3466673798278
 30
0.0
 11
126.0866724508383
 21
304.3466673798278
 31
0.0
  0
LINE
  5
25D
330
24C
100
AcDbEntity
  8
0
 62
     0
370
    -2
100
AcDbLine
 10
162.6218427722333
 20
304.3466673798278
 30
0.0
 11
158.2666724508383
 21
304.3466673798278
 31
0.0
  0
SOLID
  5
25E
330
24C
100
AcDbEntity
  8
0
 62
     0
100
AcDbTrace
 10
121.7315021294434
 20
304.3766673798277
 30
0.0
 11
121.7315021294434
 21
304.3166673798278
 31
0.0
 12
121.5515021294434
 22
304.3466673798278
 32
0.0
 13
121.5515021294434
 23
304.3466673798278
 33
0.0
  0
SOLID
  5
25F
330
24C
100
AcDbEntity
  8
0
 62
     0
100
AcDbTrace
 10
162.6218427722333
 20
304.3766673798277
 30
0.0
 11
162.6218427722333
 21
304.3166673798278
 31
0.0
 12
162.8018427722333
 22
304.3466673798278
 32
0.0
 13
162.8018427722333
 23
304.3466673798278
 33
0.0
  0
MTEXT
  5
260
330
24C
100
AcDbEntity
  8
0
 62
     0
100
AcDbMText
 10
142.1766724508383
 20
304.3466673798278
 30
0.0
 40
12.0
 41
0.0
 46
0.0
 71
     5
 72
     1
  1
\A1;41.3
 73
     1
 44
1.0
  0
POINT
  5
261
330
24C
100
AcDbEntity
  8
Defpoints
 62
     0
100
AcDbPoint
 10
121.5515021294434
 20
329.4816986124189
 30
0.0
  0
POINT
  5
262
330
24C
100
AcDbEntity
  8
Defpoints
 62
     0
100
AcDbPoint
 10
162.8018427722333
 20
329.4816986124189
 30
0.0
  0
POINT
  5
263
330
24C
100
AcDbEntity
  8
Defpoints
 62
     0
100
AcDbPoint
 10
162.8018427722333
 20
304.3466673798278
 30
0.0
  0
ENDBLK
  5
258
330
24C
100
AcDbEntity
  8
0
100
AcDbBlockEnd
  0
BLOCK
  5
3DA
330
3D9
100
AcDbEntity
  8
0
100
AcDbBlockBegin
  2
*D3
 70
     1
 10
0.0
 20
0.0
 30
0.0
  3
*D3
  1

  0
LINE
  5
3DB
330
3D9
100
AcDbEntity
  8
0
 62
     0
370
    -2
100
AcDbLine
 10
258.4298886695748
 20
161.4292614029485
 30
0.0
 11
258.4298886695748
 21
95.82486330269452
 31
0.0
  0
LINE
  5
3DC
330
3D9
100
AcDbEntity
  8
0
 62
     0
370
    -2
100
AcDbLine
 10
337.3181243646221
 20
161.4292614029485
 30
0.0
 11
337.3181243646221
 21
95.82486330269452
 31
0.0
  0
LINE
  5
3DD
330
3D9
100
AcDbEntity
  8
0
 62
     0
370
    -2
100
AcDbLine
 10
258.6098886695748
 20
96.00486330269454
 30
0.0
 11
279.7840065170985
 21
96.00486330269454
 31
0.0
  0
LINE
  5
3DE
330
3D9
100
AcDbEntity
  8
0
 62
     0
370
    -2
100
AcDbLine
 10
337.1381243646221
 20
96.00486330269454
 30
0.0
 11
315.9640065170984
 21
96.00486330269454
 31
0.0
  0
SOLID
  5
3DF
330
3D9
100
AcDbEntity
  8
0
 62
     0
100
AcDbTrace
 10
258.6098886695748
 20
96.03486330269454
 30
0.0
 11
258.6098886695748
 21
95.97486330269452
 31
0.0
 12
258.4298886695748
 22
96.00486330269454
 32
0.0
 13
258.4298886695748
 23
96.00486330269454
 33
0.0
  0
SOLID
  5
3E0
330
3D9
100
AcDbEntity
  8
0
 62
     0
100
AcDbTrace
 10
337.1381243646221
 20
96.03486330269454
 30
0.0
 11
337.1381243646221
 21
95.97486330269452
 31
0.0
 12
337.3181243646221
 22
96.00486330269454
 32
0.0
 13
337.3181243646221
 23
96.00486330269454
 33
0.0
  0
MTEXT
  5
3E1
330
3D9
100
AcDbEntity
  8
0
 62
     0
100
AcDbMText
 10
297.8740065170985
 20
96.00486330269454
 30
0.0
 40
12.0
 41
0.0
 46
0.0
 71
     5
 72
     1
  1
\A1;78.9
 73
     1
 44
1.0
  0
POINT
  5
3E2
330
3D9
100
AcDbEntity
  8
Defpoints
 62
     0
100
AcDbPoint
 10
258.4298886695748
 20
161.4917614029486
 30
0.0
  0
POINT
  5
3E3
330
3D9
100
AcDbEntity
  8
Defpoints
 62
     0
100
AcDbPoint
 10
337.3181243646221
 20
161.4917614029486
 30
0.0
  0
POINT
  5
3E4
330
3D9
100
AcDbEntity
  8
Defpoints
 62
     0
100
AcDbPoint
 10
337.3181243646221
 20
96.00486330269454
 30
0.0
  0
ENDBLK
  5
3E5
330
3D9
100
AcDbEntity
  8
0
100
AcDbBlockEnd
  0
BLOCK
  5
439
330
42E
100
AcDbEntity
  8
0
100
AcDbBlockBegin
  2
*D4
 70
     1
 10
0.0
 20
0.0
 30
0.0
  3
*D4
  1

  0
LINE
  5
43B
330
42E
100
AcDbEntity
  8
0
 62
     0
370
    -2
100
AcDbLine
 10
439.5851912974258
 20
211.1917960940133
 30
0.0
 11
439.5851912974258
 21
145.5873979937591
 31
0.0
  0
LINE
  5
43C
330
42E
100
AcDbEntity
  8
0
 62
     0
370
    -2
100
AcDbLine
 10
518.4734269924732
 20
211.1917960940133
 30
0.0
 11
518.4734269924732
 21
145.5873979937591
 31
0.0
  0
LINE
  5
43D
330
42E
100
AcDbEntity
  8
0
 62
     0
370
    -2
100
AcDbLine
 10
439.7651912974258
 20
145.7673979937591
 30
0.0
 11
460.9393091449496
 21
145.7673979937591
 31
0.0
  0
LINE
  5
43E
330
42E
100
AcDbEntity
  8
0
 62
     0
370
    -2
100
AcDbLine
 10
518.2934269924733
 20
145.7673979937591
 30
0.0
 11
497.1193091449495
 21
145.7673979937591
 31
0.0
  0
SOLID
  5
43F
330
42E
100
AcDbEntity
  8
0
 62
     0
100
AcDbTrace
 10
439.7651912974258
 20
145.7973979937591
 30
0.0
 11
439.7651912974258
 21
145.7373979937591
 31
0.0
 12
439.5851912974258
 22
145.7673979937591
 32
0.0
 13
439.5851912974258
 23
145.7673979937591
 33
0.0
  0
SOLID
  5
440
330
42E
100
AcDbEntity
  8
0
 62
     0
100
AcDbTrace
 10
518.2934269924733
 20
145.7973979937591
 30
0.0
 11
518.2934269924733
 21
145.7373979937591
 31
0.0
 12
518.4734269924732
 22
145.7673979937591
 32
0.0
 13
518.4734269924732
 23
145.7673979937591
 33
0.0
  0
MTEXT
  5
441
330
42E
100
AcDbEntity
  8
0
 62
     0
100
AcDbMText
 10
479.0293091449496
 20
145.7673979937591
 30
0.0
 40
12.0
 41
0.0
 46
0.0
 71
     5
 72
     1
  1
\A1;78.9
 73
     1
 44
1.0
  0
POINT
  5
442
330
42E
100
AcDbEntity
  8
Defpoints
 62
     0
100
AcDbPoint
 10
439.5851912974258
 20
211.2542960940134
 30
0.0
  0
POINT
  5
443
330
42E
100
AcDbEntity
  8
Defpoints
 62
     0
100
AcDbPoint
 10
518.4734269924732
 20
211.2542960940134
 30
0.0
  0
POINT
  5
444
330
42E
100
AcDbEntity
  8
Defpoints
 62
     0
100
AcDbPoint
 10
518.4734269924732
 20
145.7673979937591
 30
0.0
  0
ENDBLK
  5
43A
330
42E
100
AcDbEntity
  8
0
100
AcDbBlockEnd
  0
BLOCK
  5
55B
330
550
100
AcDbEntity
  8
0
100
AcDbBlockBegin
  2
*D5
 70
     1
 10
0.0
 20
0.0
 30
0.0
  3
*D5
  1

  0
LINE
  5
55E
330
550
100
AcDbEntity
  8
0
 62
     0
370
    -2
100
AcDbLine
 10
164.2730435772586
 20
328.2429181990956
 30
0.0
 11
220.6016958362118
 21
328.2429181990956
 31
0.0
  0
LINE
  5
55F
330
550
100
AcDbEntity
  8
0
 62
     0
370
    -2
100
AcDbLine
 10
205.6568869429344
 20
303.2429181990957
 30
0.0
 11
220.6016958362118
 21
303.2429181990957
 31
0.0
  0
LINE
  5
560
330
550
100
AcDbEntity
  8
0
 62
     0
370
    -2
100
AcDbLine
 10
220.4216958362118
 20
328.0629181990956
 30
0.0
 11
220.4216958362118
 21
321.8329181990956
 31
0.0
  0
LINE
  5
561
330
550
100
AcDbEntity
  8
0
 62
     0
370
    -2
100
AcDbLine
 10
220.4216958362118
 20
303.4229181990956
 30
0.0
 11
220.4216958362118
 21
309.6529181990957
 31
0.0
  0
SOLID
  5
562
330
550
100
AcDbEntity
  8
0
 62
     0
100
AcDbTrace
 10
220.3916958362118
 20
328.0629181990956
 30
0.0
 11
220.4516958362118
 21
328.0629181990956
 31
0.0
 12
220.4216958362118
 22
328.2429181990956
 32
0.0
 13
220.4216958362118
 23
328.2429181990956
 33
0.0
  0
SOLID
  5
563
330
550
100
AcDbEntity
  8
0
 62
     0
100
AcDbTrace
 10
220.3916958362118
 20
303.4229181990956
 30
0.0
 11
220.4516958362118
 21
303.4229181990956
 31
0.0
 12
220.4216958362118
 22
303.2429181990957
 32
0.0
 13
220.4216958362118
 23
303.2429181990957
 33
0.0
  0
MTEXT
  5
564
330
550
100
AcDbEntity
  8
0
 62
     0
100
AcDbMText
 10
220.4216958362117
 20
315.7429181990957
 30
0.0
 40
12.0
 41
0.0
 46
0.0
 71
     5
 72
     1
  1
\A1;25.0
 73
     1
 44
1.0
  0
POINT
  5
565
330
550
100
AcDbEntity
  8
Defpoints
 62
     0
100
AcDbPoint
 10
164.2105435772587
 20
328.2429181990956
 30
0.0
  0
POINT
  5
566
330
550
100
AcDbEntity
  8
Defpoints
 62
     0
100
AcDbPoint
 10
205.5943869429344
 20
303.2429181990957
 30
0.0
  0
POINT
  5
567
330
550
100
AcDbEntity
  8
Defpoints
 62
     0
100
AcDbPoint
 10
220.4216958362118
 20
303.2429181990957
 30
0.0
  0
ENDBLK
  5
55C
330
550
100
AcDbEntity
  8
0
100
AcDbBlockEnd
  0
BLOCK
  5
575
330
56A
100
AcDbEntity
  8
0
100
AcDbBlockBegin
  2
*D6
 70
     1
 10
0.0
 20
0.0
 30
0.0
  3
*D6
  1

  0
LINE
  5
578
330
56A
100
AcDbEntity
  8
0
 62
     0
370
    -2
100
AcDbLine
 10
169.2105435772586
 20
273.3054181990956
 30
0.0
 11
169.2105435772586
 21
274.3450263525176
 31
0.0
  0
LINE
  5
579
330
56A
100
AcDbEntity
  8
0
 62
     0
370
    -2
100
AcDbLine
 10
194.2105435772587
 20
273.3054181990956
 30
0.0
 11
194.2105435772587
 21
274.3450263525176
 31
0.0
  0
LINE
  5
57A
330
56A
100
AcDbEntity
  8
0
 62
     0
370
    -2
100
AcDbLine
 10
169.3905435772586
 20
274.1650263525175
 30
0.0
 11
194.0305435772586
 21
274.1650263525175
 31
0.0
  0
LINE
  5
57B
330
56A
100
AcDbEntity
  8
0
 62
     0
370
    -2
100
AcDbLine
 10
194.2105435772587
 20
274.1650263525175
 30
0.0
 11
194.3905435772587
 21
274.1650263525175
 31
0.0
  0
SOLID
  5
57C
330
56A
100
AcDbEntity
  8
0
 62
     0
100
AcDbTrace
 10
169.3905435772586
 20
274.1950263525175
 30
0.0
 11
169.3905435772586
 21
274.1350263525176
 31
0.0
 12
169.2105435772586
 22
274.1650263525175
 32
0.0
 13
169.2105435772586
 23
274.1650263525175
 33
0.0
  0
SOLID
  5
57D
330
56A
100
AcDbEntity
  8
0
 62
     0
100
AcDbTrace
 10
194.0305435772586
 20
274.1950263525175
 30
0.0
 11
194.0305435772586
 21
274.1350263525176
 31
0.0
 12
194.2105435772587
 22
274.1650263525175
 32
0.0
 13
194.2105435772587
 23
274.1650263525175
 33
0.0
  0
MTEXT
  5
57E
330
56A
100
AcDbEntity
  8
0
 62
     0
100
AcDbMText
 10
211.4805435772587
 20
274.1650263525175
 30
0.0
 40
12.0
 41
0.0
 46
0.0
 71
     5
 72
     1
  1
\A1;25.0
 73
     1
 44
1.0
  0
POINT
  5
57F
330
56A
100
AcDbEntity
  8
Defpoints
 62
     0
100
AcDbPoint
 10
169.2105435772586
 20
273.2429181990956
 30
0.0
  0
POINT
  5
580
330
56A
100
AcDbEntity
  8
Defpoints
 62
     0
100
AcDbPoint
 10
194.2105435772587
 20
273.2429181990956
 30
0.0
  0
POINT
  5
581
330
56A
100
AcDbEntity
  8
Defpoints
 62
     0
100
AcDbPoint
 10
194.2105435772587
 20
274.1650263525175
 30
0.0
  0
ENDBLK
  5
576
330
56A
100
AcDbEntity
  8
0
100
AcDbBlockEnd
  0
BLOCK
  5
58F
330
584
100
AcDbEntity
  8
0
100
AcDbBlockBegin
  2
*D7
 70
     1
 10
0.0
 20
0.0
 30
0.0
  3
*D7
  1

  0
LINE
  5
592
330
584
100
AcDbEntity
  8
0
 62
     0
370
    -2
100
AcDbLine
 10
164.2730435772586
 20
328.3054181990956
 30
0.0
 11
164.2730435772586
 21
360.4750499353496
 31
0.0
  0
LINE
  5
593
330
584
100
AcDbEntity
  8
0
 62
     0
370
    -2
100
AcDbLine
 10
194.2105435772586
 20
318.9784390199743
 30
0.0
 11
194.2105435772586
 21
360.4750499353496
 31
0.0
  0
LINE
  5
594
330
584
100
AcDbEntity
  8
0
 62
     0
370
    -2
100
AcDbLine
 10
164.4530435772587
 20
360.2950499353497
 30
0.0
 11
194.0305435772586
 21
360.2950499353497
 31
0.0
  0
LINE
  5
595
330
584
100
AcDbEntity
  8
0
 62
     0
370
    -2
100
AcDbLine
 10
194.2105435772586
 20
360.2950499353497
 30
0.0
 11
194.3905435772586
 21
360.2950499353497
 31
0.0
  0
SOLID
  5
596
330
584
100
AcDbEntity
  8
0
 62
     0
100
AcDbTrace
 10
164.4530435772587
 20
360.3250499353496
 30
0.0
 11
164.4530435772587
 21
360.2650499353497
 31
0.0
 12
164.2730435772586
 22
360.2950499353497
 32
0.0
 13
164.2730435772586
 23
360.2950499353497
 33
0.0
  0
SOLID
  5
597
330
584
100
AcDbEntity
  8
0
 62
     0
100
AcDbTrace
 10
194.0305435772586
 20
360.3250499353496
 30
0.0
 11
194.0305435772586
 21
360.2650499353497
 31
0.0
 12
194.2105435772586
 22
360.2950499353497
 32
0.0
 13
194.2105435772586
 23
360.2950499353497
 33
0.0
  0
MTEXT
  5
598
330
584
100
AcDbEntity
  8
0
 62
     0
100
AcDbMText
 10
212.4805435772587
 20
360.2950499353497
 30
0.0
 40
12.0
 41
0.0
 46
0.0
 71
     5
 72
     1
  1
\A1;29.9
 73
     1
 44
1.0
  0
POINT
  5
599
330
584
100
AcDbEntity
  8
Defpoints
 62
     0
100
AcDbPoint
 10
164.2730435772586
 20
328.2429181990956
 30
0.0
  0
POINT
  5
59A
330
584
100
AcDbEntity
  8
Defpoints
 62
     0
100
AcDbPoint
 10
194.2105435772586
 20
318.9159390199743
 30
0.0
  0
POINT
  5
59B
330
584
100
AcDbEntity
  8
Defpoints
 62
     0
100
AcDbPoint
 10
194.2105435772586
 20
360.2950499353497
 30
0.0
  0
ENDBLK
  5
590
330
584
100
AcDbEntity
  8
0
100
AcDbBlockEnd
  0
BLOCK
  5
5A9
330
59E
100
AcDbEntity
  8
0
100
AcDbBlockBegin
  2
*D8
 70
     1
 10
0.0
 20
0.0
 30
0.0
  3
*D8
  1

  0
LINE
  5
5AC
330
59E
100
AcDbEntity
  8
0
 62
     0
370
    -2
100
AcDbLine
 10
167.7070927144172
 20
273.2429181990956
 30
0.0
 11
169.7298635162612
 21
273.2429181990956
 31
0.0
  0
LINE
  5
5AD
330
59E
100
AcDbEntity
  8
0
 62
     0
370
    -2
100
AcDbLine
 10
198.8542805643566
 20
303.2429181990957
 30
0.0
 11
169.3698635162612
 21
303.2429181990957
 31
0.0
  0
LINE
  5
5AE
330
59E
100
AcDbEntity
  8
0
 62
     0
370
    -2
100
AcDbLine
 10
169.5498635162612
 20
273.4229181990956
 30
0.0
 11
169.5498635162612
 21
282.1529181990957
 31
0.0
  0
LINE
  5
5AF
330
59E
100
AcDbEntity
  8
0
 62
     0
370
    -2
100
AcDbLine
 10
169.5498635162612
 20
303.0629181990956
 30
0.0
 11
169.5498635162612
 21
294.3329181990956
 31
0.0
  0
SOLID
  5
5B0
330
59E
100
AcDbEntity
  8
0
 62
     0
100
AcDbTrace
 10
169.5198635162612
 20
273.4229181990956
 30
0.0
 11
169.5798635162612
 21
273.4229181990956
 31
0.0
 12
169.5498635162612
 22
273.2429181990956
 32
0.0
 13
169.5498635162612
 23
273.2429181990956
 33
0.0
  0
SOLID
  5
5B1
330
59E
100
AcDbEntity
  8
0
 62
     0
100
AcDbTrace
 10
169.5198635162612
 20
303.0629181990956
 30
0.0
 11
169.5798635162612
 21
303.0629181990956
 31
0.0
 12
169.5498635162612
 22
303.2429181990957
 32
0.0
 13
169.5498635162612
 23
303.2429181990957
 33
0.0
  0
MTEXT
  5
5B2
330
59E
100
AcDbEntity
  8
0
 62
     0
100
AcDbMText
 10
169.5498635162612
 20
288.2429181990957
 30
0.0
 40
12.0
 41
0.0
 46
0.0
 71
     5
 72
     1
  1
\A1;30.0
 73
     1
 44
1.0
  0
POINT
  5
5B3
330
59E
100
AcDbEntity
  8
Defpoints
 62
     0
100
AcDbPoint
 10
167.6445927144172
 20
273.2429181990956
 30
0.0
  0
POINT
  5
5B4
330
59E
100
AcDbEntity
  8
Defpoints
 62
     0
100
AcDbPoint
 10
198.9167805643566
 20
303.2429181990957
 30
0.0
  0
POINT
  5
5B5
330
59E
100
AcDbEntity
  8
Defpoints
 62
     0
100
AcDbPoint
 10
169.5498635162612
 20
303.2429181990957
 30
0.0
  0
ENDBLK
  5
5AA
330
59E
100
AcDbEntity
  8
0
100
AcDbBlockEnd
  0
ENDSEC
  0
SECTION
  2
ENTITIES
  0
LINE
  5
4B0
330
1F
100
AcDbEntity
  8
0
 62
     2
100
AcDbLine
 10
194.2105435772587
 20
203.2429181990956
 30
0.0
 11
334.2105435772587
 21
203.2429181990956
 31
0.0
  0
LINE
  5
4B1
330
1F
100
AcDbEntity
  8
0
 62
     2
100
AcDbLine
 10
334.2105435772587
 20
203.2429181990956
 30
0.0
 11
334.2105435772587
 21
303.2429181990956
 31
0.0
  0
LINE
  5
4B2
330
1F
100
AcDbEntity
  8
0
 62
     2
100
AcDbLine
 10
334.2105435772587
 20
303.2429181990956
 30
0.0
 11
194.2105435772587
 21
303.2429181990956
 31
0.0
  0
LINE
  5
4B3
330
1F
100
AcDbEntity
  8
0
 62
     2
100
AcDbLine
 10
194.2105435772587
 20
303.2429181990956
 30
0.0
 11
194.2105435772587
 21
203.2429181990956
 31
0.0
  0
LINE
  5
4B5
330
1F
100
AcDbEntity
  8
0
 62
     1
100
AcDbLine
 10
384.2105435772587
 20
203.2429181990956
 30
0.0
 11
384.2105435772587
 21
303.2429181990956
 31
0.0
  0
LINE
  5
4B6
330
1F
100
AcDbEntity
  8
0
 62
     2
100
AcDbLine
 10
334.2105435772587
 20
303.2429181990956
 30
0.0
 11
334.2105435772587
 21
393.2429181990956
 31
0.0
  0
LINE
  5
4B7
330
1F
100
AcDbEntity
  8
0
 62
     2
100
AcDbLine
 10
207.2105435772587
 20
449.2429181990956
 30
0.0
 11
321.2105435772587
 21
449.2429181990956
 31
0.0
  0
LINE
  5
4B8
330
1F
100
AcDbEntity
  8
0
 62
     1
100
AcDbLine
 10
321.2105435772587
 20
449.2429181990956
 30
0.0
 11
334.2105435772587
 21
393.2429181990956
 31
0.0
  0
LINE
  5
4BA
330
1F
100
AcDbEntity
  8
0
 62
     1
100
AcDbLine
 10
334.2105435772587
 20
303.2429181990956
 30
0.0
 11
384.2105435772587
 21
303.2429181990956
 31
0.0
  0
ARC
  5
4BC
330
1F
100
AcDbEntity
  8
0
 62
     1
100
AcDbCircle
 10
334.9770809455482
 20
332.8230733571484
 30
0.0
 40
29.59008547996204
100
AcDbArc
 50
268.5155747593716
 51
351.0955674251588
  0
LINE
  5
4C3
330
1F
100
AcDbEntity
  8
0
 62
     1
100
AcDbLine
 10
399.2105435772584
 20
315.4536829729281
 30
0.0
 11
399.2105435772586
 21
445.3439760879808
 31
0.0
  0
LINE
  5
4C4
330
1F
100
AcDbEntity
  8
0
 62
     1
100
AcDbLine
 10
364.2105435772587
 20
328.2429181990956
 30
0.0
 11
383.505161190342
 21
308.9483005860119
 31
0.0
  0
ARC
  5
4CB
330
1F
100
AcDbEntity
  8
0
 62
     1
100
AcDbCircle
 10
390.0105435772583
 20
315.4536829729281
 30
0.0
 40
9.199999999999999
100
AcDbArc
 50
224.9999999999996
 51
359.9999999999998
  0
LINE
  5
4CE
330
1F
100
AcDbEntity
  8
0
 62
     1
100
AcDbLine
 10
334.2105435772587
 20
393.2429181990956
 30
0.0
 11
363.2880263014481
 21
453.5517712566734
 31
0.0
  0
ARC
  5
4D0
330
1F
100
AcDbEntity
  8
0
 62
     1
100
AcDbCircle
 10
380.3116014661437
 20
445.3439760879806
 30
0.0
 40
18.89894211111482
100
AcDbArc
 50
0.0000000000001723
 51
154.2592916437654
  0
LINE
  5
4D1
330
1F
100
AcDbEntity
  8
0
 62
     1
100
AcDbLine
 10
385.9605435772586
 20
416.2429181990953
 30
0.0
 11
385.9605435772586
 21
446.7429181990955
 31
0.0
  0
LINE
  5
4D3
330
1F
100
AcDbEntity
  8
0
 62
     1
100
AcDbLine
 10
382.9605435772586
 20
416.2429181990953
 30
0.0
 11
382.9605435772586
 21
446.7429181990955
 31
0.0
  0
ARC
  5
4DA
330
1F
100
AcDbEntity
  8
0
 62
     1
100
AcDbCircle
 10
384.4605435772585
 20
446.7429181990955
 30
0.0
 40
1.499999999999871
100
AcDbArc
 50
0.0
 51
180.0
  0
ARC
  5
4DB
330
1F
100
AcDbEntity
  8
0
 62
     1
100
AcDbCircle
 10
384.4605435772585
 20
416.2429181990953
 30
0.0
 40
1.499999999999871
100
AcDbArc
 50
180.0
 51
0.0
  0
LINE
  5
4DD
330
1F
100
AcDbEntity
  8
0
 62
     1
100
AcDbLine
 10
334.2105435772587
 20
203.2429181990956
 30
0.0
 11
384.2105435772587
 21
203.2429181990956
 31
0.0
  0
ARC
  5
4E2
330
1F
100
AcDbEntity
  8
0
 62
     1
100
AcDbCircle
 10
294.043876910592
 20
253.2429181990956
 30
0.0
 40
68.16666666666674
100
AcDbArc
 50
342.9384687801033
 51
17.06153121989667
  0
ARC
  5
4E3
330
1F
100
AcDbEntity
  8
0
 62
     1
100
AcDbCircle
 10
294.043876910592
 20
253.2429181990956
 30
0.0
 40
71.16666666666674
100
AcDbArc
 50
343.6782854962988
 51
16.32171450370126
  0
LINE
  5
4E4
330
1F
100
AcDbEntity
  8
0
 62
     1
100
AcDbLine
 10
359.2105435772587
 20
233.2429181990956
 30
0.0
 11
362.3424453029415
 21
233.2429181990956
 31
0.0
  0
LINE
  5
4E5
330
1F
100
AcDbEntity
  8
0
 62
     1
100
AcDbLine
 10
359.2105435772587
 20
273.2429181990956
 30
0.0
 11
362.3424453029415
 21
273.2429181990956
 31
0.0
  0
LINE
  5
4E7
330
1F
100
AcDbEntity
  8
0
 62
     1
100
AcDbLine
 10
234.2105435772586
 20
469.2429181990956
 30
0.0
 11
294.2105435772586
 21
469.2429181990956
 31
0.0
  0
LINE
  5
4E8
330
1F
100
AcDbEntity
  8
0
 62
     1
100
AcDbLine
 10
304.2105435772587
 20
449.2429181990956
 30
0.0
 11
304.2105435772586
 21
459.2429181990957
 31
0.0
  0
LINE
  5
4E9
330
1F
100
AcDbEntity
  8
0
 62
     1
100
AcDbLine
 10
224.2105435772586
 20
459.2429181990955
 30
0.0
 11
224.2105435772587
 21
449.2429181990956
 31
0.0
  0
ARC
  5
4EC
330
1F
100
AcDbEntity
  8
0
 62
     1
100
AcDbCircle
 10
294.2105435772586
 20
459.2429181990955
 30
0.0
 40
10.0
100
AcDbArc
 50
0.0000000000005089
 51
90.0
  0
ARC
  5
4ED
330
1F
100
AcDbEntity
  8
0
 62
     1
100
AcDbCircle
 10
234.2105435772586
 20
459.2429181990955
 30
0.0
 40
10.0
100
AcDbArc
 50
90.0
 51
180.0
  0
LINE
  5
4EE
330
1F
100
AcDbEntity
  8
0
 62
     1
100
AcDbLine
 10
334.7105435772587
 20
462.0184640637098
 30
0.0
 11
334.7105435772587
 21
472.2429181990955
 31
0.0
  0
LINE
  5
4EF
330
1F
100
AcDbEntity
  8
0
 62
     1
100
AcDbLine
 10
227.0969817493494
 20
489.2429181990955
 30
0.0
 11
301.324105405168
 21
489.2429181990955
 31
0.0
  0
LINE
  5
4F5
330
1F
100
AcDbEntity
  8
0
 62
     1
100
AcDbLine
 10
305.653997518215
 20
486.743325023869
 30
0.0
 11
313.1887591530965
 21
473.6955662938398
 31
0.0
  0
ARC
  5
4F8
330
1F
100
AcDbEntity
  8
0
 62
     1
100
AcDbCircle
 10
324.7105435772586
 20
472.2429181990955
 30
0.0
 40
9.999999999999943
100
AcDbArc
 50
0.0
 51
169.9373986245496
  0
ARC
  5
4F9
330
1F
100
AcDbEntity
  8
0
 62
     1
100
AcDbCircle
 10
318.0605435772563
 20
466.8929181990981
 30
0.0
 40
17.92888730513147
100
AcDbArc
 50
280.119053871372
 51
330.597840084153
  0
ARC
  5
4FC
330
1F
100
AcDbEntity
  8
0
 62
     1
100
AcDbCircle
 10
326.7105435772587
 20
462.0184640637098
 30
0.0
 40
8.0
100
AcDbArc
 50
330.5978400841531
 51
0.0
  0
ARC
  5
4FD
330
1F
100
AcDbEntity
  8
0
 62
     1
100
AcDbCircle
 10
313.9728537149008
 20
474.1483617313279
 30
0.0
 40
0.905443532232354
100
AcDbArc
 50
210.0053832080861
 51
349.9373986245458
  0
ARC
  5
4FF
330
1F
100
AcDbEntity
  8
0
 62
     1
100
AcDbCircle
 10
301.324105405168
 20
484.2429181990955
 30
0.0
 40
5.0
100
AcDbArc
 50
30.00538320808522
 51
90.0
  0
LINE
  5
500
330
1F
100
AcDbEntity
  8
0
 62
     1
100
AcDbLine
 10
193.7105435772586
 20
462.0184640637098
 30
0.0
 11
193.7105435772586
 21
472.2429181990955
 31
0.0
  0
LINE
  5
501
330
1F
100
AcDbEntity
  8
0
 62
     1
100
AcDbLine
 10
222.7670896363024
 20
486.743325023869
 30
0.0
 11
215.2323280014209
 21
473.6955662938398
 31
0.0
  0
ARC
  5
502
330
1F
100
AcDbEntity
  8
0
 62
     1
100
AcDbCircle
 10
227.0969817493494
 20
484.2429181990955
 30
0.0
 40
5.0
100
AcDbArc
 50
90.0
 51
149.9946167919167
  0
ARC
  5
503
330
1F
100
AcDbEntity
  8
0
 62
     1
100
AcDbCircle
 10
203.7105435772588
 20
472.2429181990955
 30
0.0
 40
9.999999999999943
100
AcDbArc
 50
10.06260137544986
 51
180.0
  0
ARC
  5
504
330
1F
100
AcDbEntity
  8
0
 62
     1
100
AcDbCircle
 10
210.3605435772611
 20
466.8929181990981
 30
0.0
 40
17.92888730513147
100
AcDbArc
 50
209.4021599158494
 51
259.8809461286281
  0
ARC
  5
505
330
1F
100
AcDbEntity
  8
0
 62
     1
100
AcDbCircle
 10
201.7105435772587
 20
462.0184640637098
 30
0.0
 40
8.0
100
AcDbArc
 50
180.0
 51
209.4021599158445
  0
ARC
  5
506
330
1F
100
AcDbEntity
  8
0
 62
     1
100
AcDbCircle
 10
214.4482334396166
 20
474.1483617313279
 30
0.0
 40
0.905443532232354
100
AcDbArc
 50
190.0626013754525
 51
329.9946167919161
  0
LINE
  5
507
330
1F
100
AcDbEntity
  8
0
 62
     2
100
AcDbLine
 10
194.2105435772587
 20
303.2429181990956
 30
0.0
 11
194.2105435772587
 21
393.2429181990956
 31
0.0
  0
LINE
  5
508
330
1F
100
AcDbEntity
  8
0
 62
     1
100
AcDbLine
 10
129.210543577259
 20
315.4536829729281
 30
0.0
 11
129.2105435772588
 21
445.3439760879808
 31
0.0
  0
LINE
  5
509
330
1F
100
AcDbEntity
  8
0
 62
     1
100
AcDbLine
 10
142.4605435772588
 20
416.2429181990953
 30
0.0
 11
142.4605435772588
 21
446.7429181990955
 31
0.0
  0
LINE
  5
50A
330
1F
100
AcDbEntity
  8
0
 62
     1
100
AcDbLine
 10
145.4605435772588
 20
416.2429181990953
 30
0.0
 11
145.4605435772588
 21
446.7429181990955
 31
0.0
  0
ARC
  5
50B
330
1F
100
AcDbEntity
  8
0
 62
     1
100
AcDbCircle
 10
138.4105435772591
 20
315.4536829729281
 30
0.0
 40
9.199999999999999
100
AcDbArc
 50
180.0000000000002
 51
314.9999999999935
  0
ARC
  5
50C
330
1F
100
AcDbEntity
  8
0
 62
     1
100
AcDbCircle
 10
193.4440062089693
 20
332.8230733571484
 30
0.0
 40
29.59008547996204
100
AcDbArc
 50
188.9044325748404
 51
271.4844252406349
  0
LINE
  5
50D
330
1F
100
AcDbEntity
  8
0
 62
     1
100
AcDbLine
 10
164.2105435772587
 20
328.2429181990956
 30
0.0
 11
144.9159259641753
 21
308.9483005860119
 31
0.0
  0
LINE
  5
50E
330
1F
100
AcDbEntity
  8
0
 62
     1
100
AcDbLine
 10
194.2105435772587
 20
393.2429181990956
 30
0.0
 11
165.1330608530693
 21
453.5517712566734
 31
0.0
  0
ARC
  5
50F
330
1F
100
AcDbEntity
  8
0
 62
     1
100
AcDbCircle
 10
148.1094856883736
 20
445.3439760879806
 30
0.0
 40
18.89894211111482
100
AcDbArc
 50
25.74070835623548
 51
179.9999999999998
  0
ARC
  5
510
330
1F
100
AcDbEntity
  8
0
 62
     1
100
AcDbCircle
 10
143.9605435772589
 20
446.7429181990955
 30
0.0
 40
1.499999999999871
100
AcDbArc
 50
0.000000000000007
 51
180.0
  0
ARC
  5
511
330
1F
100
AcDbEntity
  8
0
 62
     1
100
AcDbCircle
 10
143.9605435772589
 20
416.2429181990953
 30
0.0
 40
1.499999999999871
100
AcDbArc
 50
180.0
 51
0.000000000000007
  0
LINE
  5
512
330
1F
100
AcDbEntity
  8
0
 62
     1
100
AcDbLine
 10
207.2105435772589
 20
449.2429181990956
 30
0.0
 11
194.2105435772589
 21
393.2429181990956
 31
0.0
  0
LINE
  5
513
330
1F
100
AcDbEntity
  8
0
 62
     1
100
AcDbLine
 10
144.2105435772587
 20
203.2429181990956
 30
0.0
 11
144.2105435772587
 21
303.2429181990956
 31
0.0
  0
LINE
  5
514
330
1F
100
AcDbEntity
  8
0
 62
     1
100
AcDbLine
 10
194.2105435772587
 20
303.2429181990956
 30
0.0
 11
144.2105435772587
 21
303.2429181990956
 31
0.0
  0
LINE
  5
515
330
1F
100
AcDbEntity
  8
0
 62
     1
100
AcDbLine
 10
194.2105435772587
 20
203.2429181990956
 30
0.0
 11
144.2105435772587
 21
203.2429181990956
 31
0.0
  0
ARC
  5
516
330
1F
100
AcDbEntity
  8
0
 62
     1
100
AcDbCircle
 10
234.3772102439254
 20
253.2429181990956
 30
0.0
 40
68.16666666666674
100
AcDbArc
 50
162.9384687801047
 51
197.0615312198953
  0
ARC
  5
517
330
1F
100
AcDbEntity
  8
0
 62
     1
100
AcDbCircle
 10
234.3772102439254
 20
253.2429181990956
 30
0.0
 40
71.16666666666674
100
AcDbArc
 50
163.6782854962985
 51
196.3217145037013
  0
LINE
  5
518
330
1F
100
AcDbEntity
  8
0
 62
     1
100
AcDbLine
 10
169.2105435772587
 20
233.2429181990956
 30
0.0
 11
166.0786418515758
 21
233.2429181990956
 31
0.0
  0
LINE
  5
519
330
1F
100
AcDbEntity
  8
0
 62
     1
100
AcDbLine
 10
169.2105435772587
 20
273.2429181990956
 30
0.0
 11
166.0786418515758
 21
273.2429181990956
 31
0.0
  0
LINE
  5
51A
330
1F
100
AcDbEntity
  8
0
 62
     2
100
AcDbLine
 10
334.2105435772587
 20
203.2429181990956
 30
0.0
 11
334.2105435772587
 21
113.2429181990955
 31
0.0
  0
LINE
  5
51B
330
1F
100
AcDbEntity
  8
0
 62
     1
100
AcDbLine
 10
399.2105435772584
 20
191.0321534252631
 30
0.0
 11
399.2105435772586
 21
61.14186031021034
 31
0.0
  0
LINE
  5
51C
330
1F
100
AcDbEntity
  8
0
 62
     1
100
AcDbLine
 10
385.9605435772586
 20
90.24291819909576
 30
0.0
 11
385.9605435772586
 21
59.74291819909558
 31
0.0
  0
LINE
  5
51D
330
1F
100
AcDbEntity
  8
0
 62
     1
100
AcDbLine
 10
382.9605435772586
 20
90.24291819909576
 30
0.0
 11
382.9605435772586
 21
59.74291819909558
 31
0.0
  0
ARC
  5
51E
330
1F
100
AcDbEntity
  8
0
 62
     1
100
AcDbCircle
 10
390.0105435772583
 20
191.0321534252631
 30
0.0
 40
9.199999999999999
100
AcDbArc
 50
0.0
 51
135.0000000000002
  0
LINE
  5
51F
330
1F
100
AcDbEntity
  8
0
 62
     2
100
AcDbLine
 10
207.2105435772587
 20
57.24291819909558
 30
0.0
 11
321.2105435772587
 21
57.24291819909558
 31
0.0
  0
LINE
  5
520
330
1F
100
AcDbEntity
  8
0
 62
     1
100
AcDbLine
 10
321.2105435772587
 20
57.24291819909558
 30
0.0
 11
334.2105435772587
 21
113.2429181990955
 31
0.0
  0
ARC
  5
521
330
1F
100
AcDbEntity
  8
0
 62
     1
100
AcDbCircle
 10
334.9770809455482
 20
173.6627630410428
 30
0.0
 40
29.59008547996204
100
AcDbArc
 50
8.904432574840953
 51
91.48442524062842
  0
LINE
  5
522
330
1F
100
AcDbEntity
  8
0
 62
     1
100
AcDbLine
 10
364.2105435772587
 20
178.2429181990956
 30
0.0
 11
383.505161190342
 21
197.5375358121793
 31
0.0
  0
LINE
  5
523
330
1F
100
AcDbEntity
  8
0
 62
     1
100
AcDbLine
 10
334.2105435772587
 20
113.2429181990955
 30
0.0
 11
363.2880263014481
 21
52.93406514151769
 31
0.0
  0
ARC
  5
524
330
1F
100
AcDbEntity
  8
0
 62
     1
100
AcDbCircle
 10
380.3116014661437
 20
61.1418603102104
 30
0.0
 40
18.89894211111482
100
AcDbArc
 50
205.7407083562338
 51
0.0
  0
ARC
  5
525
330
1F
100
AcDbEntity
  8
0
 62
     1
100
AcDbCircle
 10
384.4605435772585
 20
59.74291819909558
 30
0.0
 40
1.499999999999871
100
AcDbArc
 50
180.0
 51
0.0
  0
ARC
  5
526
330
1F
100
AcDbEntity
  8
0
 62
     1
100
AcDbCircle
 10
384.4605435772585
 20
90.24291819909576
 30
0.0
 40
1.499999999999871
100
AcDbArc
 50
0.0
 51
180.0
  0
LINE
  5
527
330
1F
100
AcDbEntity
  8
0
 62
     1
100
AcDbLine
 10
234.2105435772586
 20
37.24291819909553
 30
0.0
 11
294.2105435772586
 21
37.24291819909553
 31
0.0
  0
LINE
  5
528
330
1F
100
AcDbEntity
  8
0
 62
     1
100
AcDbLine
 10
227.0969817493494
 20
17.24291819909558
 30
0.0
 11
301.324105405168
 21
17.24291819909558
 31
0.0
  0
ARC
  5
529
330
1F
100
AcDbEntity
  8
0
 62
     1
100
AcDbCircle
 10
294.2105435772586
 20
47.24291819909552
 30
0.0
 40
10.0
100
AcDbArc
 50
270.0
 51
0.0
  0
LINE
  5
52A
330
1F
100
AcDbEntity
  8
0
 62
     1
100
AcDbLine
 10
304.2105435772587
 20
57.24291819909558
 30
0.0
 11
304.2105435772586
 21
47.2429181990954
 31
0.0
  0
LINE
  5
52B
330
1F
100
AcDbEntity
  8
0
 62
     1
100
AcDbLine
 10
334.7105435772587
 20
44.46737233448113
 30
0.0
 11
334.7105435772587
 21
34.24291819909559
 31
0.0
  0
LINE
  5
52C
330
1F
100
AcDbEntity
  8
0
 62
     1
100
AcDbLine
 10
224.2105435772586
 20
47.24291819909552
 30
0.0
 11
224.2105435772587
 21
57.24291819909558
 31
0.0
  0
ARC
  5
52D
330
1F
100
AcDbEntity
  8
0
 62
     1
100
AcDbCircle
 10
234.2105435772586
 20
47.24291819909552
 30
0.0
 40
10.0
100
AcDbArc
 50
180.0
 51
270.0
  0
LINE
  5
52E
330
1F
100
AcDbEntity
  8
0
 62
     1
100
AcDbLine
 10
305.653997518215
 20
19.74251137432213
 30
0.0
 11
313.1887591530965
 21
32.79027010435124
 31
0.0
  0
ARC
  5
52F
330
1F
100
AcDbEntity
  8
0
 62
     1
100
AcDbCircle
 10
301.324105405168
 20
22.24291819909558
 30
0.0
 40
5.0
100
AcDbArc
 50
270.0
 51
329.9946167919155
  0
ARC
  5
530
330
1F
100
AcDbEntity
  8
0
 62
     1
100
AcDbCircle
 10
324.7105435772586
 20
34.24291819909559
 30
0.0
 40
9.999999999999943
100
AcDbArc
 50
190.062601375449
 51
0.0
  0
ARC
  5
531
330
1F
100
AcDbEntity
  8
0
 62
     1
100
AcDbCircle
 10
318.0605435772563
 20
39.59291819909305
 30
0.0
 40
17.92888730513147
100
AcDbArc
 50
29.40215991584615
 51
79.88094612862806
  0
ARC
  5
532
330
1F
100
AcDbEntity
  8
0
 62
     1
100
AcDbCircle
 10
326.7105435772587
 20
44.46737233448113
 30
0.0
 40
8.0
100
AcDbArc
 50
0.0
 51
29.40215991584612
  0
ARC
  5
533
330
1F
100
AcDbEntity
  8
0
 62
     1
100
AcDbCircle
 10
313.9728537149008
 20
32.33747466686316
 30
0.0
 40
0.905443532232354
100
AcDbArc
 50
10.06260137545222
 51
149.9946167919131
  0
LINE
  5
534
330
1F
100
AcDbEntity
  8
0
 62
     1
100
AcDbLine
 10
193.7105435772586
 20
44.46737233448113
 30
0.0
 11
193.7105435772586
 21
34.24291819909559
 31
0.0
  0
LINE
  5
535
330
1F
100
AcDbEntity
  8
0
 62
     1
100
AcDbLine
 10
222.7670896363024
 20
19.74251137432213
 30
0.0
 11
215.2323280014209
 21
32.79027010435124
 31
0.0
  0
ARC
  5
536
330
1F
100
AcDbEntity
  8
0
 62
     1
100
AcDbCircle
 10
227.0969817493494
 20
22.24291819909558
 30
0.0
 40
5.0
100
AcDbArc
 50
210.005383208084
 51
270.0
  0
ARC
  5
537
330
1F
100
AcDbEntity
  8
0
 62
     1
100
AcDbCircle
 10
203.7105435772588
 20
34.24291819909559
 30
0.0
 40
9.999999999999943
100
AcDbArc
 50
180.0
 51
349.9373986245509
  0
ARC
  5
538
330
1F
100
AcDbEntity
  8
0
 62
     1
100
AcDbCircle
 10
210.3605435772611
 20
39.59291819909305
 30
0.0
 40
17.92888730513147
100
AcDbArc
 50
100.1190538713719
 51
150.5978400841511
  0
ARC
  5
539
330
1F
100
AcDbEntity
  8
0
 62
     1
100
AcDbCircle
 10
201.7105435772587
 20
44.46737233448113
 30
0.0
 40
8.0
100
AcDbArc
 50
150.5978400841544
 51
180.0
  0
ARC
  5
53A
330
1F
100
AcDbEntity
  8
0
 62
     1
100
AcDbCircle
 10
214.4482334396166
 20
32.33747466686316
 30
0.0
 40
0.905443532232354
100
AcDbArc
 50
30.00538320808419
 51
169.9373986245477
  0
LINE
  5
53B
330
1F
100
AcDbEntity
  8
0
 62
     2
100
AcDbLine
 10
194.2105435772587
 20
203.2429181990956
 30
0.0
 11
194.2105435772587
 21
113.2429181990955
 31
0.0
  0
LINE
  5
53C
330
1F
100
AcDbEntity
  8
0
 62
     1
100
AcDbLine
 10
129.210543577259
 20
191.0321534252631
 30
0.0
 11
129.2105435772588
 21
61.14186031021034
 31
0.0
  0
LINE
  5
53D
330
1F
100
AcDbEntity
  8
0
 62
     1
100
AcDbLine
 10
142.4605435772588
 20
90.24291819909576
 30
0.0
 11
142.4605435772588
 21
59.74291819909558
 31
0.0
  0
LINE
  5
53E
330
1F
100
AcDbEntity
  8
0
 62
     1
100
AcDbLine
 10
145.4605435772588
 20
90.24291819909576
 30
0.0
 11
145.4605435772588
 21
59.74291819909558
 31
0.0
  0
ARC
  5
53F
330
1F
100
AcDbEntity
  8
0
 62
     1
100
AcDbCircle
 10
138.4105435772591
 20
191.0321534252631
 30
0.0
 40
9.199999999999999
100
AcDbArc
 50
45.00000000000667
 51
180.0
  0
ARC
  5
540
330
1F
100
AcDbEntity
  8
0
 62
     1
100
AcDbCircle
 10
193.4440062089693
 20
173.6627630410428
 30
0.0
 40
29.59008547996204
100
AcDbArc
 50
88.51557475936507
 51
171.095567425159
  0
LINE
  5
541
330
1F
100
AcDbEntity
  8
0
 62
     1
100
AcDbLine
 10
164.2105435772587
 20
178.2429181990956
 30
0.0
 11
144.9159259641753
 21
197.5375358121793
 31
0.0
  0
LINE
  5
542
330
1F
100
AcDbEntity
  8
0
 62
     1
100
AcDbLine
 10
194.2105435772587
 20
113.2429181990955
 30
0.0
 11
165.1330608530693
 21
52.93406514151769
 31
0.0
  0
ARC
  5
543
330
1F
100
AcDbEntity
  8
0
 62
     1
100
AcDbCircle
 10
148.1094856883736
 20
61.1418603102104
 30
0.0
 40
18.89894211111482
100
AcDbArc
 50
180.0
 51
334.2592916437636
  0
ARC
  5
544
330
1F
100
AcDbEntity
  8
0
 62
     1
100
AcDbCircle
 10
143.9605435772589
 20
59.74291819909558
 30
0.0
 40
1.499999999999871
100
AcDbArc
 50
180.0
 51
0.0
  0
ARC
  5
545
330
1F
100
AcDbEntity
  8
0
 62
     1
100
AcDbCircle
 10
143.9605435772589
 20
90.24291819909576
 30
0.0
 40
1.499999999999871
100
AcDbArc
 50
0.0
 51
180.0
  0
LINE
  5
546
330
1F
100
AcDbEntity
  8
0
 62
     1
100
AcDbLine
 10
207.2105435772589
 20
57.24291819909558
 30
0.0
 11
194.2105435772589
 21
113.2429181990955
 31
0.0
  0
ENDSEC
  0
SECTION
  2
OBJECTS
  0
DICTIONARY
  5
C
330
0
100
AcDbDictionary
281
     1
  3
ACAD_COLOR
350
7E
  3
ACAD_GROUP
350
D
  3
ACAD_LAYOUT
350
1A
  3
ACAD_MATERIAL
350
3B
  3
ACAD_MLEADERSTYLE
350
7B
  3
ACAD_MLINESTYLE
350
17
  3
ACAD_PLOTSETTINGS
350
19
  3
ACAD_PLOTSTYLENAME
350
E
  3
ACAD_TABLESTYLE
350
7A
  3
ACAD_VISUALSTYLE
350
2A
  3
AcDbVariableDictionary
350
4A9
  0
SUN
  5
3F
330
29
100
AcDbSun
 90
        1
290
     1
 63
     7
421
 16777215
 40
1.0
291
     1
 91
  2455826
 92
 54000000
292
     0
 70
     0
 71
   256
280
     1
  0
DICTIONARY
  5
468
330
1F
100
AcDbDictionary
280
     1
281
     1
  3
ACAD_SORTENTS
360
469
  0
DICTIONARY
  5
7E
102
{ACAD_REACTORS
330
C
102
}
330
C
100
AcDbDictionary
281
     1
  0
DICTIONARY
  5
D
102
{ACAD_REACTORS
330
C
102
}
330
C
100
AcDbDictionary
281
     1
  0
DICTIONARY
  5
1A
102
{ACAD_REACTORS
330
C
102
}
330
C
100
AcDbDictionary
281
     1
  3
Layout1
350
1E
  3
Layout2
350
26
  3
Model
350
22
  0
DICTIONARY
  5
3B
102
{ACAD_REACTORS
330
C
102
}
330
C
100
AcDbDictionary
281
     1
  3
ByBlock
350
3D
  3
ByLayer
350
3C
  3
Global
350
3E
  0
DICTIONARY
  5
7B
102
{ACAD_REACTORS
330
C
102
}
330
C
100
AcDbDictionary
281
     1
  0
DICTIONARY
  5
17
102
{ACAD_REACTORS
330
C
102
}
330
C
100
AcDbDictionary
281
     1
  3
Standard
350
18
  0
DICTIONARY
  5
19
102
{ACAD_REACTORS
330
C
102
}
330
C
100
AcDbDictionary
281
     1
  0
ACDBDICTIONARYWDFLT
  5
E
102
{ACAD_REACTORS
330
C
102
}
330
C
100
AcDbDictionary
281
     1
  3
Normal
350
F
100
AcDbDictionaryWithDefault
340
F
  0
DICTIONARY
  5
7A
102
{ACAD_REACTORS
330
C
102
}
330
C
100
AcDbDictionary
281
     1
  3
Standard
350
7F
  0
DICTIONARY
  5
2A
102
{ACAD_REACTORS
330
C
102
}
330
C
100
AcDbDictionary
281
     1
  3
2dWireframe
350
2F
  3
3D Hidden
350
31
  3
3dWireframe
350
30
  3
Basic
350
32
  3
Brighten
350
36
  3
ColorChange
350
3A
  3
Conceptual
350
34
  3
Dim
350
35
  3
Facepattern
350
39
  3
Flat
350
2B
  3
FlatWithEdges
350
2C
  3
Gouraud
350
2D
  3
GouraudWithEdges
350
2E
  3
Linepattern
350
38
  3
Realistic
350
33
  3
Thicken
350
37
  0
DICTIONARY
  5
4A9
102
{ACAD_REACTORS
330
C
102
}
330
C
100
AcDbDictionary
281
     1
  3
CTABLESTYLE
350
4AA
  0
SORTENTSTABLE
  5
469
102
{ACAD_REACTORS
330
468
102
}
330
468
100
AcDbSortentsTable
330
1F
331
4CB
  5
4CF
331
4D1
  5
4CB
331
4F8
  5
4FC
331
4EC
  5
4ED
331
4E4
  5
4E4
331
4B3
  5
4C5
331
4FF
  5
4F9
331
4F9
  5
4FD
331
4BA
  5
4D2
331
4E5
  5
4E5
331
4ED
  5
4F4
331
4D3
  5
4CE
331
4EE
  5
4EF
331
4B5
  5
4B3
331
4E8
  5
4EE
331
4CE
  5
4DC
331
4DA
  5
4DE
331
4BC
  5
4DA
331
4F5
  5
4F7
331
4B6
  5
4C8
331
4E7
  5
4E7
331
4EF
  5
4EB
331
4B0
  5
4B0
331
4E9
  5
4F3
331
4DB
  5
4DF
331
4C3
  5
4CA
331
4FC
  5
4FE
331
4B7
  5
4D0
331
4E2
  5
4E2
331
4B1
  5
4B1
331
4D0
  5
4DD
331
4FD
  5
4FF
331
4C4
  5
4DB
331
4B8
  5
4D1
331
4E3
  5
4E3
331
4B2
  5
4B7
331
4DD
  5
4E0
  0
LAYOUT
  5
1E
102
{ACAD_REACTORS
330
1A
102
}
330
1A
100
AcDbPlotSettings
  1

  2
none_device
  4

  6

 40
0.0
 41
0.0
 42
0.0
 43
0.0
 44
0.0
 45
0.0
 46
0.0
 47
0.0
 48
0.0
 49
0.0
140
0.0
141
0.0
142
1.0
143
1.0
 70
   688
 72
     0
 73
     0
 74
     5
  7

 75
    16
147
1.0
 76
     0
 77
     2
 78
   300
148
0.0
149
0.0
100
AcDbLayout
  1
Layout1
 70
     1
 71
     1
 10
0.0
 20
0.0
 11
12.0
 21
9.0
 12
0.0
 22
0.0
 32
0.0
 14
1.000000000000000E+20
 24
1.000000000000000E+20
 34
1.000000000000000E+20
 15
-1.000000000000000E+20
 25
-1.000000000000000E+20
 35
-1.000000000000000E+20
146
0.0
 13
0.0
 23
0.0
 33
0.0
 16
1.0
 26
0.0
 36
0.0
 17
0.0
 27
1.0
 37
0.0
 76
     0
330
1B
  0
LAYOUT
  5
26
102
{ACAD_REACTORS
330
1A
102
}
330
1A
100
AcDbPlotSettings
  1

  2
none_device
  4

  6

 40
0.0
 41
0.0
 42
0.0
 43
0.0
 44
0.0
 45
0.0
 46
0.0
 47
0.0
 48
0.0
 49
0.0
140
0.0
141
0.0
142
1.0
143
1.0
 70
   688
 72
     0
 73
     0
 74
     5
  7

 75
    16
147
1.0
 76
     0
 77
     2
 78
   300
148
0.0
149
0.0
100
AcDbLayout
  1
Layout2
 70
     1
 71
     2
 10
0.0
 20
0.0
 11
0.0
 21
0.0
 12
0.0
 22
0.0
 32
0.0
 14
0.0
 24
0.0
 34
0.0
 15
0.0
 25
0.0
 35
0.0
146
0.0
 13
0.0
 23
0.0
 33
0.0
 16
1.0
 26
0.0
 36
0.0
 17
0.0
 27
1.0
 37
0.0
 76
     0
330
23
  0
LAYOUT
  5
22
102
{ACAD_REACTORS
330
1A
102
}
330
1A
100
AcDbPlotSettings
  1

  2
none_device
  4

  6

 40
0.0
 41
0.0
 42
0.0
 43
0.0
 44
0.0
 45
0.0
 46
0.0
 47
0.0
 48
0.0
 49
0.0
140
0.0
141
0.0
142
1.0
143
1.0
 70
  1712
 72
     0
 73
     0
 74
     0
  7

 75
     0
147
1.0
 76
     0
 77
     2
 78
   300
148
0.0
149
0.0
100
AcDbLayout
  1
Model
 70
     1
 71
     0
 10
0.0
 20
0.0
 11
12.0
 21
9.0
 12
0.0
 22
0.0
 32
0.0
 14
1.000000000000000E+20
 24
1.000000000000000E+20
 34
1.000000000000000E+20
 15
-1.000000000000000E+20
 25
-1.000000000000000E+20
 35
-1.000000000000000E+20
146
0.0
 13
0.0
 23
0.0
 33
0.0
 16
1.0
 26
0.0
 36
0.0
 17
0.0
 27
1.0
 37
0.0
 76
     0
330
1F
331
29
  0
MATERIAL
  5
3D
102
{ACAD_REACTORS
330
3B
102
}
330
3B
100
AcDbMaterial
  1
ByBlock
 94
      127
  0
MATERIAL
  5
3C
102
{ACAD_REACTORS
330
3B
102
}
330
3B
100
AcDbMaterial
  1
ByLayer
 94
      127
  0
MATERIAL
  5
3E
102
{ACAD_REACTORS
330
3B
102
}
330
3B
100
AcDbMaterial
  1
Global
 94
      127
  0
MLINESTYLE
  5
18
102
{ACAD_REACTORS
330
17
102
}
330
17
100
AcDbMlineStyle
  2
STANDARD
 70
     0
  3

 62
   256
 51
90.0
 52
90.0
 71
     2
 49
0.5
 62
   256
  6
BYLAYER
 49
-0.5
 62
   256
  6
BYLAYER
  0
ACDBPLACEHOLDER
  5
F
102
{ACAD_REACTORS
330
E
102
}
330
E
  0
TABLESTYLE
  5
7F
102
{ACAD_REACTORS
330
7A
102
}
330
7A
100
AcDbTableStyle
  3
Standard
 70
     0
 71
     0
 40
0.06
 41
0.06
280
     0
281
     0
  7
Standard
140
0.18
170
     2
 62
     0
 63
     7
283
     0
 90
      512
 91
        0
  1

274
    -2
284
     1
 64
     0
275
    -2
285
     1
 65
     0
276
    -2
286
     1
 66
     0
277
    -2
287
     1
 67
     0
278
    -2
288
     1
 68
     0
279
    -2
289
     1
 69
     0
  7
Standard
140
0.25
170
     5
 62
     0
 63
     7
283
     0
 90
      512
 91
        0
  1

274
    -2
284
     1
 64
     0
275
    -2
285
     1
 65
     0
276
    -2
286
     1
 66
     0
277
    -2
287
     1
 67
     0
278
    -2
288
     1
 68
     0
279
    -2
289
     1
 69
     0
  7
Standard
140
0.18
170
     5
 62
     0
 63
     7
283
     0
 90
      512
 91
        0
  1

274
    -2
284
     1
 64
     0
275
    -2
285
     1
 65
     0
276
    -2
286
     1
 66
     0
277
    -2
287
     1
 67
     0
278
    -2
288
     1
 68
     0
279
    -2
289
     1
 69
     0
  0
VISUALSTYLE
  5
2F
102
{ACAD_XDICTIONARY
360
62
102
}
102
{ACAD_REACTORS
330
2A
102
}
330
2A
100
AcDbVisualStyle
  2
2dWireframe
 70
     4
 71
     0
 72
     2
 73
     0
 90
        0
 40
-0.6
 41
-30.0
 62
     5
 63
     7
421
 16777215
 74
     1
 91
        4
 64
     7
 65
   257
 75
     1
175
     1
 42
1.0
 92
        0
 66
   257
 43
1.0
 76
     1
 77
     6
 78
     2
 67
     7
 79
     5
170
     0
171
     0
290
     0
174
     0
 93
        1
 44
0.0
173
     0
291
     0
 45
0.0
  0
VISUALSTYLE
  5
31
102
{ACAD_XDICTIONARY
360
66
102
}
102
{ACAD_REACTORS
330
2A
102
}
330
2A
100
AcDbVisualStyle
  2
3D Hidden
 70
     6
 71
     1
 72
     2
 73
     2
 90
        0
 40
-0.6
 41
-30.0
 62
     5
 63
     7
421
 16777215
 74
     2
 91
        2
 64
     7
 65
   257
 75
     2
175
     1
 42
40.0
 92
        0
 66
   257
 43
1.0
 76
     1
 77
     6
 78
     2
 67
     7
 79
     3
170
     0
171
     0
290
     0
174
     0
 93
        1
 44
0.0
173
     0
291
     0
 45
0.0
  0
VISUALSTYLE
  5
30
102
{ACAD_XDICTIONARY
360
64
102
}
102
{ACAD_REACTORS
330
2A
102
}
330
2A
100
AcDbVisualStyle
  2
3dWireframe
 70
     5
 71
     0
 72
     2
 73
     0
 90
        0
 40
-0.6
 41
-30.0
 62
     5
 63
     7
421
 16777215
 74
     1
 91
        4
 64
     7
 65
   257
 75
     1
175
     1
 42
1.0
 92
        0
 66
   257
 43
1.0
 76
     1
 77
     6
 78
     2
 67
     7
 79
     5
170
     0
171
     0
290
     0
174
     0
 93
        1
 44
0.0
173
     0
291
     0
 45
0.0
  0
VISUALSTYLE
  5
32
102
{ACAD_XDICTIONARY
360
68
102
}
102
{ACAD_REACTORS
330
2A
102
}
330
2A
100
AcDbVisualStyle
  2
Basic
 70
     7
 71
     1
 72
     0
 73
     1
 90
        0
 40
-0.6
 41
-30.0
 62
     5
 63
     7
421
 16777215
 74
     0
 91
        4
 64
     7
 65
   257
 75
     1
175
     1
 42
1.0
 92
        8
 66
     7
 43
1.0
 76
     1
 77
     6
 78
     2
 67
     7
 79
     5
170
     0
171
     0
290
     0
174
     0
 93
        1
 44
0.0
173
     0
291
     1
 45
0.0
  0
VISUALSTYLE
  5
36
102
{ACAD_XDICTIONARY
360
70
102
}
102
{ACAD_REACTORS
330
2A
102
}
330
2A
100
AcDbVisualStyle
  2
Brighten
 70
    12
 71
     2
 72
     2
 73
     0
 90
        0
 40
-0.6
 41
-30.0
 62
     5
 63
     7
421
 16777215
 74
     1
 91
        4
 64
     7
 65
   257
 75
     1
175
     1
 42
1.0
 92
        8
 66
     7
 43
1.0
 76
     1
 77
     6
 78
     2
 67
     7
 79
     5
170
     0
171
     0
290
     0
174
     0
 93
        1
 44
50.0
173
     0
291
     1
 45
0.0
  0
VISUALSTYLE
  5
3A
102
{ACAD_XDICTIONARY
360
78
102
}
102
{ACAD_REACTORS
330
2A
102
}
330
2A
100
AcDbVisualStyle
  2
ColorChange
 70
    16
 71
     2
 72
     2
 73
     3
 90
        0
 40
-0.6
 41
-30.0
 62
     5
 63
     8
421
  8421504
 74
     1
 91
        4
 64
     7
 65
   257
 75
     1
175
     1
 42
1.0
 92
        8
 66
     8
424
  8421504
 43
1.0
 76
     1
 77
     6
 78
     2
 67
     7
 79
     5
170
     0
171
     0
290
     0
174
     0
 93
        1
 44
0.0
173
     0
291
     1
 45
0.0
  0
VISUALSTYLE
  5
34
102
{ACAD_XDICTIONARY
360
6C
102
}
102
{ACAD_REACTORS
330
2A
102
}
330
2A
100
AcDbVisualStyle
  2
Conceptual
 70
     9
 71
     3
 72
     2
 73
     0
 90
        0
 40
-0.6
 41
-30.0
 62
     5
 63
     7
421
 16777215
 74
     2
 91
        2
 64
     7
 65
   257
 75
     1
175
     1
 42
40.0
 92
        8
 66
     7
 43
1.0
 76
     1
 77
     6
 78
     2
 67
     7
 79
     3
170
     0
171
     0
290
     0
174
     0
 93
        1
 44
0.0
173
     0
291
     0
 45
0.0
  0
VISUALSTYLE
  5
35
102
{ACAD_XDICTIONARY
360
6E
102
}
102
{ACAD_REACTORS
330
2A
102
}
330
2A
100
AcDbVisualStyle
  2
Dim
 70
    11
 71
     2
 72
     2
 73
     0
 90
        0
 40
-0.6
 41
-30.0
 62
     5
 63
     7
421
 16777215
 74
     1
 91
        4
 64
     7
 65
   257
 75
     1
175
     1
 42
1.0
 92
        8
 66
     7
 43
1.0
 76
     1
 77
     6
 78
     2
 67
     7
 79
     5
170
     0
171
     0
290
     0
174
     0
 93
        1
 44
-50.0
173
     0
291
     1
 45
0.0
  0
VISUALSTYLE
  5
39
102
{ACAD_XDICTIONARY
360
76
102
}
102
{ACAD_REACTORS
330
2A
102
}
330
2A
100
AcDbVisualStyle
  2
Facepattern
 70
    15
 71
     2
 72
     2
 73
     0
 90
        0
 40
-0.6
 41
-30.0
 62
     5
 63
     7
421
 16777215
 74
     1
 91
        4
 64
     7
 65
   257
 75
     1
175
     1
 42
1.0
 92
        8
 66
     7
 43
1.0
 76
     1
 77
     6
 78
     2
 67
     7
 79
     5
170
     0
171
     0
290
     0
174
     0
 93
        1
 44
0.0
173
     0
291
     1
 45
0.0
  0
VISUALSTYLE
  5
2B
102
{ACAD_XDICTIONARY
360
5A
102
}
102
{ACAD_REACTORS
330
2A
102
}
330
2A
100
AcDbVisualStyle
  2
Flat
 70
     0
 71
     2
 72
     1
 73
     1
 90
        2
 40
-0.6
 41
30.0
 62
     5
 63
     7
421
 16777215
 74
     0
 91
        4
 64
     7
 65
   257
 75
     1
175
     1
 42
1.0
 92
        8
 66
     7
 43
1.0
 76
     1
 77
     6
 78
     2
 67
     7
 79
     5
170
     0
171
     0
290
     0
174
     0
 93
       13
 44
0.0
173
     0
291
     1
 45
0.0
  0
VISUALSTYLE
  5
2C
102
{ACAD_XDICTIONARY
360
5C
102
}
102
{ACAD_REACTORS
330
2A
102
}
330
2A
100
AcDbVisualStyle
  2
FlatWithEdges
 70
     1
 71
     2
 72
     1
 73
     1
 90
        2
 40
-0.6
 41
30.0
 62
     5
 63
     7
421
 16777215
 74
     1
 91
        4
 64
     7
 65
   257
 75
     1
175
     1
 42
1.0
 92
        0
 66
   257
 43
1.0
 76
     1
 77
     6
 78
     2
 67
     7
 79
     5
170
     0
171
     0
290
     0
174
     0
 93
       13
 44
0.0
173
     0
291
     1
 45
0.0
  0
VISUALSTYLE
  5
2D
102
{ACAD_XDICTIONARY
360
5E
102
}
102
{ACAD_REACTORS
330
2A
102
}
330
2A
100
AcDbVisualStyle
  2
Gouraud
 70
     2
 71
     2
 72
     2
 73
     1
 90
        2
 40
-0.6
 41
30.0
 62
     5
 63
     7
421
 16777215
 74
     0
 91
        4
 64
     7
 65
   257
 75
     1
175
     1
 42
1.0
 92
        0
 66
     7
 43
1.0
 76
     1
 77
     6
 78
     2
 67
     7
 79
     5
170
     0
171
     0
290
     0
174
     0
 93
       13
 44
0.0
173
     0
291
     1
 45
0.0
  0
VISUALSTYLE
  5
2E
102
{ACAD_XDICTIONARY
360
60
102
}
102
{ACAD_REACTORS
330
2A
102
}
330
2A
100
AcDbVisualStyle
  2
GouraudWithEdges
 70
     3
 71
     2
 72
     2
 73
     1
 90
        2
 40
-0.6
 41
30.0
 62
     5
 63
     7
421
 16777215
 74
     1
 91
        4
 64
     7
 65
   257
 75
     1
175
     1
 42
1.0
 92
        0
 66
   257
 43
1.0
 76
     1
 77
     6
 78
     2
 67
     7
 79
     5
170
     0
171
     0
290
     0
174
     0
 93
       13
 44
0.0
173
     0
291
     1
 45
0.0
  0
VISUALSTYLE
  5
38
102
{ACAD_XDICTIONARY
360
74
102
}
102
{ACAD_REACTORS
330
2A
102
}
330
2A
100
AcDbVisualStyle
  2
Linepattern
 70
    14
 71
     2
 72
     2
 73
     0
 90
        0
 40
-0.6
 41
-30.0
 62
     5
 63
     7
421
 16777215
 74
     1
 91
        4
 64
     7
 65
   257
 75
     7
175
     7
 42
1.0
 92
        8
 66
     7
 43
1.0
 76
     1
 77
     6
 78
     2
 67
     7
 79
     5
170
     0
171
     0
290
     0
174
     0
 93
        1
 44
0.0
173
     0
291
     1
 45
0.0
  0
VISUALSTYLE
  5
33
102
{ACAD_XDICTIONARY
360
6A
102
}
102
{ACAD_REACTORS
330
2A
102
}
330
2A
100
AcDbVisualStyle
  2
Realistic
 70
     8
 71
     2
 72
     2
 73
     0
 90
        0
 40
-0.6
 41
-30.0
 62
     5
 63
     7
421
 16777215
 74
     1
 91
        0
 64
     7
 65
   257
 75
     1
175
     1
 42
1.0
 92
        8
 66
     8
424
  7895160
 43
1.0
 76
     1
 77
     6
 78
     2
 67
     7
 79
     5
170
     0
171
     0
290
     0
174
     0
 93
       13
 44
0.0
173
     0
291
     0
 45
0.0
  0
VISUALSTYLE
  5
37
102
{ACAD_XDICTIONARY
360
72
102
}
102
{ACAD_REACTORS
330
2A
102
}
330
2A
100
AcDbVisualStyle
  2
Thicken
 70
    13
 71
     2
 72
     2
 73
     0
 90
        0
 40
-0.6
 41
-30.0
 62
     5
 63
     7
421
 16777215
 74
     1
 91
        4
 64
     7
 65
   257
 75
     1
175
     1
 42
1.0
 92
       12
 66
     7
 43
1.0
 76
     1
 77
     6
 78
     2
 67
     7
 79
     5
170
     0
171
     0
290
     0
174
     0
 93
        1
 44
0.0
173
     0
291
     1
 45
0.0
  0
DICTIONARYVAR
  5
4AA
102
{ACAD_REACTORS
330
4A9
102
}
330
4A9
100
DictionaryVariables
280
     0
  1
STANDARD
  0
DICTIONARY
  5
62
330
2F
100
AcDbDictionary
280
     1
281
     1
  3
ACAD_XREC_ROUNDTRIP
360
63
  0
DICTIONARY
  5
66
330
31
100
AcDbDictionary
280
     1
281
     1
  3
ACAD_XREC_ROUNDTRIP
360
67
  0
DICTIONARY
  5
64
330
30
100
AcDbDictionary
280
     1
281
     1
  3
ACAD_XREC_ROUNDTRIP
360
65
  0
DICTIONARY
  5
68
330
32
100
AcDbDictionary
280
     1
281
     1
  3
ACAD_XREC_ROUNDTRIP
360
69
  0
DICTIONARY
  5
70
330
36
100
AcDbDictionary
280
     1
281
     1
  3
ACAD_XREC_ROUNDTRIP
360
71
  0
DICTIONARY
  5
78
330
3A
100
AcDbDictionary
280
     1
281
     1
  3
ACAD_XREC_ROUNDTRIP
360
79
  0
DICTIONARY
  5
6C
330
34
100
AcDbDictionary
280
     1
281
     1
  3
ACAD_XREC_ROUNDTRIP
360
6D
  0
DICTIONARY
  5
6E
330
35
100
AcDbDictionary
280
     1
281
     1
  3
ACAD_XREC_ROUNDTRIP
360
6F
  0
DICTIONARY
  5
76
330
39
100
AcDbDictionary
280
     1
281
     1
  3
ACAD_XREC_ROUNDTRIP
360
77
  0
DICTIONARY
  5
5A
330
2B
100
AcDbDictionary
280
     1
281
     1
  3
ACAD_XREC_ROUNDTRIP
360
5B
  0
DICTIONARY
  5
5C
330
2C
100
AcDbDictionary
280
     1
281
     1
  3
ACAD_XREC_ROUNDTRIP
360
5D
  0
DICTIONARY
  5
5E
330
2D
100
AcDbDictionary
280
     1
281
     1
  3
ACAD_XREC_ROUNDTRIP
360
5F
  0
DICTIONARY
  5
60
330
2E
100
AcDbDictionary
280
     1
281
     1
  3
ACAD_XREC_ROUNDTRIP
360
61
  0
DICTIONARY
  5
74
330
38
100
AcDbDictionary
280
     1
281
     1
  3
ACAD_XREC_ROUNDTRIP
360
75
  0
DICTIONARY
  5
6A
330
33
100
AcDbDictionary
280
     1
281
     1
  3
ACAD_XREC_ROUNDTRIP
360
6B
  0
DICTIONARY
  5
72
330
37
100
AcDbDictionary
280
     1
281
     1
  3
ACAD_XREC_ROUNDTRIP
360
73
  0
XRECORD
  5
63
102
{ACAD_REACTORS
330
62
102
}
330
62
100
AcDbXrecord
280
     1
102
RTVSPropertyOp0
 70
     1
102
RTVSPropertyOp1
 70
     1
102
RTVSPropertyOp2
 70
     1
102
RTVSPropertyOp3
 70
     1
102
RTVSPropertyOp4
 70
     1
102
RTVSPropertyOp5
 70
     1
102
RTVSPropertyOp6
 70
     1
102
RTVSPropertyOp7
 70
     1
102
RTVSPropertyOp8
 70
     1
102
RTVSPropertyOp9
 70
     1
102
RTVSPropertyOp10
 70
     1
102
RTVSPropertyOp11
 70
     1
102
RTVSPropertyOp12
 70
     1
102
RTVSPropertyOp13
 70
     1
102
RTVSPropertyOp14
 70
     1
102
RTVSPropertyOp15
 70
     1
102
RTVSPropertyOp16
 70
     1
102
RTVSPropertyOp17
 70
     1
102
RTVSPropertyOp18
 70
     1
102
RTVSPropertyOp19
 70
     1
102
RTVSPropertyOp20
 70
     1
102
RTVSPropertyOp21
 70
     1
102
RTVSPropertyOp22
 70
     1
102
RTVSPropertyOp23
 70
     1
102
RTVSPropertyOp24
 70
     1
102
RTVSPropertyOp25
 70
     1
102
RTVSPropertyOp26
 70
     1
102
RTVSPropertyOp27
 70
     1
102
RTVSPropertyOp28
 70
     1
102
RTVSPropertyOp29
 70
     1
102
RTVSPropertyOp30
 70
     1
102
RTVSPropertyOp31
 70
     1
102
RTVSPropertyOp32
 70
     1
  0
XRECORD
  5
67
102
{ACAD_REACTORS
330
66
102
}
330
66
100
AcDbXrecord
280
     1
102
RTVSPropertyOp0
 70
     1
102
RTVSPropertyOp1
 70
     1
102
RTVSPropertyOp2
 70
     1
102
RTVSPropertyOp3
 70
     1
102
RTVSPropertyOp4
 70
     1
102
RTVSPropertyOp5
 70
     1
102
RTVSPropertyOp6
 70
     1
102
RTVSPropertyOp7
 70
     1
102
RTVSPropertyOp8
 70
     1
102
RTVSPropertyOp9
 70
     1
102
RTVSPropertyOp10
 70
     1
102
RTVSPropertyOp11
 70
     1
102
RTVSPropertyOp12
 70
     1
102
RTVSPropertyOp13
 70
     1
102
RTVSPropertyOp14
 70
     1
102
RTVSPropertyOp15
 70
     1
102
RTVSPropertyOp16
 70
     1
102
RTVSPropertyOp17
 70
     1
102
RTVSPropertyOp18
 70
     1
102
RTVSPropertyOp19
 70
     1
102
RTVSPropertyOp20
 70
     1
102
RTVSPropertyOp21
 70
     1
102
RTVSPropertyOp22
 70
     1
102
RTVSPropertyOp23
 70
     1
102
RTVSPropertyOp24
 70
     1
102
RTVSPropertyOp25
 70
     1
102
RTVSPropertyOp26
 70
     1
102
RTVSPropertyOp27
 70
     1
102
RTVSPropertyOp28
 70
     1
102
RTVSPropertyOp29
 70
     1
102
RTVSPropertyOp30
 70
     1
102
RTVSPropertyOp31
 70
     1
102
RTVSPropertyOp32
 70
     1
  0
XRECORD
  5
65
102
{ACAD_REACTORS
330
64
102
}
330
64
100
AcDbXrecord
280
     1
102
RTVSPropertyOp0
 70
     1
102
RTVSPropertyOp1
 70
     1
102
RTVSPropertyOp2
 70
     1
102
RTVSPropertyOp3
 70
     1
102
RTVSPropertyOp4
 70
     1
102
RTVSPropertyOp5
 70
     1
102
RTVSPropertyOp6
 70
     1
102
RTVSPropertyOp7
 70
     1
102
RTVSPropertyOp8
 70
     1
102
RTVSPropertyOp9
 70
     1
102
RTVSPropertyOp10
 70
     1
102
RTVSPropertyOp11
 70
     1
102
RTVSPropertyOp12
 70
     1
102
RTVSPropertyOp13
 70
     1
102
RTVSPropertyOp14
 70
     1
102
RTVSPropertyOp15
 70
     1
102
RTVSPropertyOp16
 70
     1
102
RTVSPropertyOp17
 70
     1
102
RTVSPropertyOp18
 70
     1
102
RTVSPropertyOp19
 70
     1
102
RTVSPropertyOp20
 70
     1
102
RTVSPropertyOp21
 70
     1
102
RTVSPropertyOp22
 70
     1
102
RTVSPropertyOp23
 70
     1
102
RTVSPropertyOp24
 70
     1
102
RTVSPropertyOp25
 70
     1
102
RTVSPropertyOp26
 70
     1
102
RTVSPropertyOp27
 70
     1
102
RTVSPropertyOp28
 70
     1
102
RTVSPropertyOp29
 70
     1
102
RTVSPropertyOp30
 70
     1
102
RTVSPropertyOp31
 70
     1
102
RTVSPropertyOp32
 70
     1
  0
XRECORD
  5
69
102
{ACAD_REACTORS
330
68
102
}
330
68
100
AcDbXrecord
280
     1
102
RTVSPropertyOp0
 70
     1
102
RTVSPropertyOp1
 70
     1
102
RTVSPropertyOp2
 70
     1
102
RTVSPropertyOp3
 70
     1
102
RTVSPropertyOp4
 70
     1
102
RTVSPropertyOp5
 70
     1
102
RTVSPropertyOp6
 70
     1
102
RTVSPropertyOp7
 70
     1
102
RTVSPropertyOp8
 70
     1
102
RTVSPropertyOp9
 70
     1
102
RTVSPropertyOp10
 70
     1
102
RTVSPropertyOp11
 70
     1
102
RTVSPropertyOp12
 70
     1
102
RTVSPropertyOp13
 70
     1
102
RTVSPropertyOp14
 70
     1
102
RTVSPropertyOp15
 70
     1
102
RTVSPropertyOp16
 70
     1
102
RTVSPropertyOp17
 70
     1
102
RTVSPropertyOp18
 70
     1
102
RTVSPropertyOp19
 70
     1
102
RTVSPropertyOp20
 70
     1
102
RTVSPropertyOp21
 70
     1
102
RTVSPropertyOp22
 70
     1
102
RTVSPropertyOp23
 70
     1
102
RTVSPropertyOp24
 70
     1
102
RTVSPropertyOp25
 70
     1
102
RTVSPropertyOp26
 70
     1
102
RTVSPropertyOp27
 70
     1
102
RTVSPropertyOp28
 70
     1
102
RTVSPropertyOp29
 70
     1
102
RTVSPropertyOp30
 70
     1
102
RTVSPropertyOp31
 70
     1
102
RTVSPropertyOp32
 70
     1
  0
XRECORD
  5
71
102
{ACAD_REACTORS
330
70
102
}
330
70
100
AcDbXrecord
280
     1
102
RTVSPropertyOp0
 70
     1
102
RTVSPropertyOp1
 70
     1
102
RTVSPropertyOp2
 70
     1
102
RTVSPropertyOp3
 70
     1
102
RTVSPropertyOp4
 70
     1
102
RTVSPropertyOp5
 70
     1
102
RTVSPropertyOp6
 70
     1
102
RTVSPropertyOp7
 70
     1
102
RTVSPropertyOp8
 70
     1
102
RTVSPropertyOp9
 70
     1
102
RTVSPropertyOp10
 70
     1
102
RTVSPropertyOp11
 70
     1
102
RTVSPropertyOp12
 70
     1
102
RTVSPropertyOp13
 70
     1
102
RTVSPropertyOp14
 70
     1
102
RTVSPropertyOp15
 70
     1
102
RTVSPropertyOp16
 70
     1
102
RTVSPropertyOp17
 70
     1
102
RTVSPropertyOp18
 70
     1
102
RTVSPropertyOp19
 70
     1
102
RTVSPropertyOp20
 70
     1
102
RTVSPropertyOp21
 70
     1
102
RTVSPropertyOp22
 70
     1
102
RTVSPropertyOp23
 70
     1
102
RTVSPropertyOp24
 70
     1
102
RTVSPropertyOp25
 70
     1
102
RTVSPropertyOp26
 70
     1
102
RTVSPropertyOp27
 70
     1
102
RTVSPropertyOp28
 70
     1
102
RTVSPropertyOp29
 70
     1
102
RTVSPropertyOp30
 70
     1
102
RTVSPropertyOp31
 70
     1
102
RTVSPropertyOp32
 70
     1
  0
XRECORD
  5
79
102
{ACAD_REACTORS
330
78
102
}
330
78
100
AcDbXrecord
280
     1
102
RTVSPropertyOp0
 70
     1
102
RTVSPropertyOp1
 70
     1
102
RTVSPropertyOp2
 70
     1
102
RTVSPropertyOp3
 70
     1
102
RTVSPropertyOp4
 70
     1
102
RTVSPropertyOp5
 70
     1
102
RTVSPropertyOp6
 70
     1
102
RTVSPropertyOp7
 70
     1
102
RTVSPropertyOp8
 70
     1
102
RTVSPropertyOp9
 70
     1
102
RTVSPropertyOp10
 70
     1
102
RTVSPropertyOp11
 70
     1
102
RTVSPropertyOp12
 70
     1
102
RTVSPropertyOp13
 70
     1
102
RTVSPropertyOp14
 70
     1
102
RTVSPropertyOp15
 70
     1
102
RTVSPropertyOp16
 70
     1
102
RTVSPropertyOp17
 70
     1
102
RTVSPropertyOp18
 70
     1
102
RTVSPropertyOp19
 70
     1
102
RTVSPropertyOp20
 70
     1
102
RTVSPropertyOp21
 70
     1
102
RTVSPropertyOp22
 70
     1
102
RTVSPropertyOp23
 70
     1
102
RTVSPropertyOp24
 70
     1
102
RTVSPropertyOp25
 70
     1
102
RTVSPropertyOp26
 70
     1
102
RTVSPropertyOp27
 70
     1
102
RTVSPropertyOp28
 70
     1
102
RTVSPropertyOp29
 70
     1
102
RTVSPropertyOp30
 70
     1
102
RTVSPropertyOp31
 70
     1
102
RTVSPropertyOp32
 70
     1
  0
XRECORD
  5
6D
102
{ACAD_REACTORS
330
6C
102
}
330
6C
100
AcDbXrecord
280
     1
102
RTVSPropertyOp0
 70
     1
102
RTVSPropertyOp1
 70
     1
102
RTVSPropertyOp2
 70
     1
102
RTVSPropertyOp3
 70
     1
102
RTVSPropertyOp4
 70
     1
102
RTVSPropertyOp5
 70
     1
102
RTVSPropertyOp6
 70
     1
102
RTVSPropertyOp7
 70
     1
102
RTVSPropertyOp8
 70
     1
102
RTVSPropertyOp9
 70
     1
102
RTVSPropertyOp10
 70
     1
102
RTVSPropertyOp11
 70
     1
102
RTVSPropertyOp12
 70
     1
102
RTVSPropertyOp13
 70
     1
102
RTVSPropertyOp14
 70
     1
102
RTVSPropertyOp15
 70
     1
102
RTVSPropertyOp16
 70
     1
102
RTVSPropertyOp17
 70
     1
102
RTVSPropertyOp18
 70
     1
102
RTVSPropertyOp19
 70
     1
102
RTVSPropertyOp20
 70
     1
102
RTVSPropertyOp21
 70
     1
102
RTVSPropertyOp22
 70
     1
102
RTVSPropertyOp23
 70
     1
102
RTVSPropertyOp24
 70
     1
102
RTVSPropertyOp25
 70
     1
102
RTVSPropertyOp26
 70
     1
102
RTVSPropertyOp27
 70
     1
102
RTVSPropertyOp28
 70
     1
102
RTVSPropertyOp29
 70
     1
102
RTVSPropertyOp30
 70
     1
102
RTVSPropertyOp31
 70
     1
102
RTVSPropertyOp32
 70
     1
  0
XRECORD
  5
6F
102
{ACAD_REACTORS
330
6E
102
}
330
6E
100
AcDbXrecord
280
     1
102
RTVSPropertyOp0
 70
     1
102
RTVSPropertyOp1
 70
     1
102
RTVSPropertyOp2
 70
     1
102
RTVSPropertyOp3
 70
     1
102
RTVSPropertyOp4
 70
     1
102
RTVSPropertyOp5
 70
     1
102
RTVSPropertyOp6
 70
     1
102
RTVSPropertyOp7
 70
     1
102
RTVSPropertyOp8
 70
     1
102
RTVSPropertyOp9
 70
     1
102
RTVSPropertyOp10
 70
     1
102
RTVSPropertyOp11
 70
     1
102
RTVSPropertyOp12
 70
     1
102
RTVSPropertyOp13
 70
     1
102
RTVSPropertyOp14
 70
     1
102
RTVSPropertyOp15
 70
     1
102
RTVSPropertyOp16
 70
     1
102
RTVSPropertyOp17
 70
     1
102
RTVSPropertyOp18
 70
     1
102
RTVSPropertyOp19
 70
     1
102
RTVSPropertyOp20
 70
     1
102
RTVSPropertyOp21
 70
     1
102
RTVSPropertyOp22
 70
     1
102
RTVSPropertyOp23
 70
     1
102
RTVSPropertyOp24
 70
     1
102
RTVSPropertyOp25
 70
     1
102
RTVSPropertyOp26
 70
     1
102
RTVSPropertyOp27
 70
     1
102
RTVSPropertyOp28
 70
     1
102
RTVSPropertyOp29
 70
     1
102
RTVSPropertyOp30
 70
     1
102
RTVSPropertyOp31
 70
     1
102
RTVSPropertyOp32
 70
     1
  0
XRECORD
  5
77
102
{ACAD_REACTORS
330
76
102
}
330
76
100
AcDbXrecord
280
     1
102
RTVSPropertyOp0
 70
     1
102
RTVSPropertyOp1
 70
     1
102
RTVSPropertyOp2
 70
     1
102
RTVSPropertyOp3
 70
     1
102
RTVSPropertyOp4
 70
     1
102
RTVSPropertyOp5
 70
     1
102
RTVSPropertyOp6
 70
     1
102
RTVSPropertyOp7
 70
     1
102
RTVSPropertyOp8
 70
     1
102
RTVSPropertyOp9
 70
     1
102
RTVSPropertyOp10
 70
     1
102
RTVSPropertyOp11
 70
     1
102
RTVSPropertyOp12
 70
     1
102
RTVSPropertyOp13
 70
     1
102
RTVSPropertyOp14
 70
     1
102
RTVSPropertyOp15
 70
     1
102
RTVSPropertyOp16
 70
     1
102
RTVSPropertyOp17
 70
     1
102
RTVSPropertyOp18
 70
     1
102
RTVSPropertyOp19
 70
     1
102
RTVSPropertyOp20
 70
     1
102
RTVSPropertyOp21
 70
     1
102
RTVSPropertyOp22
 70
     1
102
RTVSPropertyOp23
 70
     1
102
RTVSPropertyOp24
 70
     1
102
RTVSPropertyOp25
 70
     1
102
RTVSPropertyOp26
 70
     1
102
RTVSPropertyOp27
 70
     1
102
RTVSPropertyOp28
 70
     1
102
RTVSPropertyOp29
 70
     1
102
RTVSPropertyOp30
 70
     1
102
RTVSPropertyOp31
 70
     1
102
RTVSPropertyOp32
 70
     1
  0
XRECORD
  5
5B
102
{ACAD_REACTORS
330
5A
102
}
330
5A
100
AcDbXrecord
280
     1
102
RTVSPropertyOp0
 70
     1
102
RTVSPropertyOp1
 70
     1
102
RTVSPropertyOp2
 70
     1
102
RTVSPropertyOp3
 70
     1
102
RTVSPropertyOp4
 70
     1
102
RTVSPropertyOp5
 70
     1
102
RTVSPropertyOp6
 70
     1
102
RTVSPropertyOp7
 70
     1
102
RTVSPropertyOp8
 70
     1
102
RTVSPropertyOp9
 70
     1
102
RTVSPropertyOp10
 70
     1
102
RTVSPropertyOp11
 70
     1
102
RTVSPropertyOp12
 70
     1
102
RTVSPropertyOp13
 70
     1
102
RTVSPropertyOp14
 70
     1
102
RTVSPropertyOp15
 70
     1
102
RTVSPropertyOp16
 70
     1
102
RTVSPropertyOp17
 70
     1
102
RTVSPropertyOp18
 70
     1
102
RTVSPropertyOp19
 70
     1
102
RTVSPropertyOp20
 70
     1
102
RTVSPropertyOp21
 70
     1
102
RTVSPropertyOp22
 70
     1
102
RTVSPropertyOp23
 70
     1
102
RTVSPropertyOp24
 70
     1
102
RTVSPropertyOp25
 70
     1
102
RTVSPropertyOp26
 70
     1
102
RTVSPropertyOp27
 70
     1
102
RTVSPropertyOp28
 70
     1
102
RTVSPropertyOp29
 70
     1
102
RTVSPropertyOp30
 70
     1
102
RTVSPropertyOp31
 70
     1
102
RTVSPropertyOp32
 70
     1
  0
XRECORD
  5
5D
102
{ACAD_REACTORS
330
5C
102
}
330
5C
100
AcDbXrecord
280
     1
102
RTVSPropertyOp0
 70
     1
102
RTVSPropertyOp1
 70
     1
102
RTVSPropertyOp2
 70
     1
102
RTVSPropertyOp3
 70
     1
102
RTVSPropertyOp4
 70
     1
102
RTVSPropertyOp5
 70
     1
102
RTVSPropertyOp6
 70
     1
102
RTVSPropertyOp7
 70
     1
102
RTVSPropertyOp8
 70
     1
102
RTVSPropertyOp9
 70
     1
102
RTVSPropertyOp10
 70
     1
102
RTVSPropertyOp11
 70
     1
102
RTVSPropertyOp12
 70
     1
102
RTVSPropertyOp13
 70
     1
102
RTVSPropertyOp14
 70
     1
102
RTVSPropertyOp15
 70
     1
102
RTVSPropertyOp16
 70
     1
102
RTVSPropertyOp17
 70
     1
102
RTVSPropertyOp18
 70
     1
102
RTVSPropertyOp19
 70
     1
102
RTVSPropertyOp20
 70
     1
102
RTVSPropertyOp21
 70
     1
102
RTVSPropertyOp22
 70
     1
102
RTVSPropertyOp23
 70
     1
102
RTVSPropertyOp24
 70
     1
102
RTVSPropertyOp25
 70
     1
102
RTVSPropertyOp26
 70
     1
102
RTVSPropertyOp27
 70
     1
102
RTVSPropertyOp28
 70
     1
102
RTVSPropertyOp29
 70
     1
102
RTVSPropertyOp30
 70
     1
102
RTVSPropertyOp31
 70
     1
102
RTVSPropertyOp32
 70
     1
  0
XRECORD
  5
5F
102
{ACAD_REACTORS
330
5E
102
}
330
5E
100
AcDbXrecord
280
     1
102
RTVSPropertyOp0
 70
     1
102
RTVSPropertyOp1
 70
     1
102
RTVSPropertyOp2
 70
     1
102
RTVSPropertyOp3
 70
     1
102
RTVSPropertyOp4
 70
     1
102
RTVSPropertyOp5
 70
     1
102
RTVSPropertyOp6
 70
     1
102
RTVSPropertyOp7
 70
     1
102
RTVSPropertyOp8
 70
     1
102
RTVSPropertyOp9
 70
     1
102
RTVSPropertyOp10
 70
     1
102
RTVSPropertyOp11
 70
     1
102
RTVSPropertyOp12
 70
     1
102
RTVSPropertyOp13
 70
     1
102
RTVSPropertyOp14
 70
     1
102
RTVSPropertyOp15
 70
     1
102
RTVSPropertyOp16
 70
     1
102
RTVSPropertyOp17
 70
     1
102
RTVSPropertyOp18
 70
     1
102
RTVSPropertyOp19
 70
     1
102
RTVSPropertyOp20
 70
     1
102
RTVSPropertyOp21
 70
     1
102
RTVSPropertyOp22
 70
     1
102
RTVSPropertyOp23
 70
     1
102
RTVSPropertyOp24
 70
     1
102
RTVSPropertyOp25
 70
     1
102
RTVSPropertyOp26
 70
     1
102
RTVSPropertyOp27
 70
     1
102
RTVSPropertyOp28
 70
     1
102
RTVSPropertyOp29
 70
     1
102
RTVSPropertyOp30
 70
     1
102
RTVSPropertyOp31
 70
     1
102
RTVSPropertyOp32
 70
     1
  0
XRECORD
  5
61
102
{ACAD_REACTORS
330
60
102
}
330
60
100
AcDbXrecord
280
     1
102
RTVSPropertyOp0
 70
     1
102
RTVSPropertyOp1
 70
     1
102
RTVSPropertyOp2
 70
     1
102
RTVSPropertyOp3
 70
     1
102
RTVSPropertyOp4
 70
     1
102
RTVSPropertyOp5
 70
     1
102
RTVSPropertyOp6
 70
     1
102
RTVSPropertyOp7
 70
     1
102
RTVSPropertyOp8
 70
     1
102
RTVSPropertyOp9
 70
     1
102
RTVSPropertyOp10
 70
     1
102
RTVSPropertyOp11
 70
     1
102
RTVSPropertyOp12
 70
     1
102
RTVSPropertyOp13
 70
     1
102
RTVSPropertyOp14
 70
     1
102
RTVSPropertyOp15
 70
     1
102
RTVSPropertyOp16
 70
     1
102
RTVSPropertyOp17
 70
     1
102
RTVSPropertyOp18
 70
     1
102
RTVSPropertyOp19
 70
     1
102
RTVSPropertyOp20
 70
     1
102
RTVSPropertyOp21
 70
     1
102
RTVSPropertyOp22
 70
     1
102
RTVSPropertyOp23
 70
     1
102
RTVSPropertyOp24
 70
     1
102
RTVSPropertyOp25
 70
     1
102
RTVSPropertyOp26
 70
     1
102
RTVSPropertyOp27
 70
     1
102
RTVSPropertyOp28
 70
     1
102
RTVSPropertyOp29
 70
     1
102
RTVSPropertyOp30
 70
     1
102
RTVSPropertyOp31
 70
     1
102
RTVSPropertyOp32
 70
     1
  0
XRECORD
  5
75
102
{ACAD_REACTORS
330
74
102
}
330
74
100
AcDbXrecord
280
     1
102
RTVSPropertyOp0
 70
     1
102
RTVSPropertyOp1
 70
     1
102
RTVSPropertyOp2
 70
     1
102
RTVSPropertyOp3
 70
     1
102
RTVSPropertyOp4
 70
     1
102
RTVSPropertyOp5
 70
     1
102
RTVSPropertyOp6
 70
     1
102
RTVSPropertyOp7
 70
     1
102
RTVSPropertyOp8
 70
     1
102
RTVSPropertyOp9
 70
     1
102
RTVSPropertyOp10
 70
     1
102
RTVSPropertyOp11
 70
     1
102
RTVSPropertyOp12
 70
     1
102
RTVSPropertyOp13
 70
     1
102
RTVSPropertyOp14
 70
     1
102
RTVSPropertyOp15
 70
     1
102
RTVSPropertyOp16
 70
     1
102
RTVSPropertyOp17
 70
     1
102
RTVSPropertyOp18
 70
     1
102
RTVSPropertyOp19
 70
     1
102
RTVSPropertyOp20
 70
     1
102
RTVSPropertyOp21
 70
     1
102
RTVSPropertyOp22
 70
     1
102
RTVSPropertyOp23
 70
     1
102
RTVSPropertyOp24
 70
     1
102
RTVSPropertyOp25
 70
     1
102
RTVSPropertyOp26
 70
     1
102
RTVSPropertyOp27
 70
     1
102
RTVSPropertyOp28
 70
     1
102
RTVSPropertyOp29
 70
     1
102
RTVSPropertyOp30
 70
     1
102
RTVSPropertyOp31
 70
     1
102
RTVSPropertyOp32
 70
     1
  0
XRECORD
  5
6B
102
{ACAD_REACTORS
330
6A
102
}
330
6A
100
AcDbXrecord
280
     1
102
RTVSPropertyOp0
 70
     1
102
RTVSPropertyOp1
 70
     1
102
RTVSPropertyOp2
 70
     1
102
RTVSPropertyOp3
 70
     1
102
RTVSPropertyOp4
 70
     1
102
RTVSPropertyOp5
 70
     1
102
RTVSPropertyOp6
 70
     1
102
RTVSPropertyOp7
 70
     1
102
RTVSPropertyOp8
 70
     1
102
RTVSPropertyOp9
 70
     1
102
RTVSPropertyOp10
 70
     1
102
RTVSPropertyOp11
 70
     1
102
RTVSPropertyOp12
 70
     1
102
RTVSPropertyOp13
 70
     1
102
RTVSPropertyOp14
 70
     1
102
RTVSPropertyOp15
 70
     1
102
RTVSPropertyOp16
 70
     1
102
RTVSPropertyOp17
 70
     1
102
RTVSPropertyOp18
 70
     1
102
RTVSPropertyOp19
 70
     1
102
RTVSPropertyOp20
 70
     1
102
RTVSPropertyOp21
 70
     1
102
RTVSPropertyOp22
 70
     1
102
RTVSPropertyOp23
 70
     1
102
RTVSPropertyOp24
 70
     1
102
RTVSPropertyOp25
 70
     1
102
RTVSPropertyOp26
 70
     1
102
RTVSPropertyOp27
 70
     1
102
RTVSPropertyOp28
 70
     1
102
RTVSPropertyOp29
 70
     1
102
RTVSPropertyOp30
 70
     1
102
RTVSPropertyOp31
 70
     1
102
RTVSPropertyOp32
 70
     1
  0
XRECORD
  5
73
102
{ACAD_REACTORS
330
72
102
}
330
72
100
AcDbXrecord
280
     1
102
RTVSPropertyOp0
 70
     1
102
RTVSPropertyOp1
 70
     1
102
RTVSPropertyOp2
 70
     1
102
RTVSPropertyOp3
 70
     1
102
RTVSPropertyOp4
 70
     1
102
RTVSPropertyOp5
 70
     1
102
RTVSPropertyOp6
 70
     1
102
RTVSPropertyOp7
 70
     1
102
RTVSPropertyOp8
 70
     1
102
RTVSPropertyOp9
 70
     1
102
RTVSPropertyOp10
 70
     1
102
RTVSPropertyOp11
 70
     1
102
RTVSPropertyOp12
 70
     1
102
RTVSPropertyOp13
 70
     1
102
RTVSPropertyOp14
 70
     1
102
RTVSPropertyOp15
 70
     1
102
RTVSPropertyOp16
 70
     1
102
RTVSPropertyOp17
 70
     1
102
RTVSPropertyOp18
 70
     1
102
RTVSPropertyOp19
 70
     1
102
RTVSPropertyOp20
 70
     1
102
RTVSPropertyOp21
 70
     1
102
RTVSPropertyOp22
 70
     1
102
RTVSPropertyOp23
 70
     1
102
RTVSPropertyOp24
 70
     1
102
RTVSPropertyOp25
 70
     1
102
RTVSPropertyOp26
 70
     1
102
RTVSPropertyOp27
 70
     1
102
RTVSPropertyOp28
 70
     1
102
RTVSPropertyOp29
 70
     1
102
RTVSPropertyOp30
 70
     1
102
RTVSPropertyOp31
 70
     1
102
RTVSPropertyOp32
 70
     1
  0
ENDSEC
  0
EOF
